  0
SECTION
  2
HEADER
  9
$ACADVER
  1
AC1015
  9
$ACADMAINTVER
 70
     6
  9
$DWGCODEPAGE
  3
ANSI_1254
  9
$INSBASE
 10
0.0
 20
0.0
 30
0.0
  9
$EXTMIN
 10
0.0
 20
0.0
 30
0.0
  9
$EXTMAX
 10
279.4
 20
215.9
 30
0.0
  9
$LIMMIN
 10
0.0
 20
0.0
  9
$LIMMAX
 10
279.4
 20
215.9
  9
$ORTHOMODE
 70
     0
  9
$REGENMODE
 70
     1
  9
$FILLMODE
 70
     1
  9
$QTEXTMODE
 70
     0
  9
$MIRRTEXT
 70
     1
  9
$LTSCALE
 40
1.0
  9
$ATTMODE
 70
     1
  9
$TEXTSIZE
 40
3.5
  9
$TRACEWID
 40
1.0
  9
$TEXTSTYLE
  7
Standard
  9
$CLAYER
  8
0
  9
$CELTYPE
  6
ByLayer
  9
$CECOLOR
 62
   256
  9
$CELTSCALE
 40
1.0
  9
$DISPSILH
 70
     0
  9
$DIMSCALE
 40
1.0
  9
$DIMASZ
 40
3.5
  9
$DIMEXO
 40
1.0
  9
$DIMDLI
 40
3.75
  9
$DIMRND
 40
0.0
  9
$DIMDLE
 40
0.0
  9
$DIMEXE
 40
1.0
  9
$DIMTP
 40
0.0
  9
$DIMTM
 40
0.0
  9
$DIMTXT
 40
3.5
  9
$DIMCEN
 40
2.5
  9
$DIMTSZ
 40
0.0
  9
$DIMTOL
 70
     0
  9
$DIMLIM
 70
     0
  9
$DIMTIH
 70
     1
  9
$DIMTOH
 70
     1
  9
$DIMSE1
 70
     0
  9
$DIMSE2
 70
     0
  9
$DIMTAD
 70
     1
  9
$DIMZIN
 70
     0
  9
$DIMBLK
  1

  9
$DIMASO
 70
     1
  9
$DIMSHO
 70
     1
  9
$DIMPOST
  1

  9
$DIMAPOST
  1

  9
$DIMALT
 70
     0
  9
$DIMALTD
 70
     3
  9
$DIMALTF
 40
0.0393700787
  9
$DIMLFAC
 40
1.0
  9
$DIMTOFL
 70
     1
  9
$DIMTVP
 40
0.0
  9
$DIMTIX
 70
     0
  9
$DIMSOXD
 70
     0
  9
$DIMSAH
 70
     0
  9
$DIMBLK1
  1

  9
$DIMBLK2
  1

  9
$DIMSTYLE
  2
ISO-25
  9
$DIMCLRD
 70
     0
  9
$DIMCLRE
 70
     0
  9
$DIMCLRT
 70
     0
  9
$DIMTFAC
 40
1.0
  9
$DIMGAP
 40
1.524
  9
$DIMJUST
 70
     0
  9
$DIMSD1
 70
     0
  9
$DIMSD2
 70
     0
  9
$DIMTOLJ
 70
     0
  9
$DIMTZIN
 70
     0
  9
$DIMALTZ
 70
     0
  9
$DIMALTTZ
 70
     0
  9
$DIMUPT
 70
     0
  9
$DIMDEC
 70
     2
  9
$DIMTDEC
 70
     2
  9
$DIMALTU
 70
     2
  9
$DIMALTTD
 70
     3
  9
$DIMTXSTY
  7
Standard
  9
$DIMAUNIT
 70
     0
  9
$DIMADEC
 70
     2
  9
$DIMALTRND
 40
0.0
  9
$DIMAZIN
 70
     0
  9
$DIMDSEP
 70
    44
  9
$DIMATFIT
 70
     3
  9
$DIMFRAC
 70
     0
  9
$DIMLDRBLK
  1

  9
$DIMLUNIT
 70
     2
  9
$DIMLWD
 70
    -2
  9
$DIMLWE
 70
    -2
  9
$DIMTMOVE
 70
     0
  9
$LUNITS
 70
     2
  9
$LUPREC
 70
     2
  9
$SKETCHINC
 40
1.0
  9
$FILLETRAD
 40
10.0
  9
$AUNITS
 70
     0
  9
$AUPREC
 70
     2
  9
$MENU
  1
.
  9
$ELEVATION
 40
0.0
  9
$PELEVATION
 40
0.0
  9
$THICKNESS
 40
0.0
  9
$LIMCHECK
 70
     0
  9
$CHAMFERA
 40
0.0
  9
$CHAMFERB
 40
0.0
  9
$CHAMFERC
 40
0.0
  9
$CHAMFERD
 40
0.0
  9
$SKPOLY
 70
     0
  9
$TDCREATE
 40
2460346.670852951
  9
$TDUCREATE
 40
2460346.545852951
  9
$TDUPDATE
 40
2460346.670853137
  9
$TDUUPDATE
 40
2460346.545853137
  9
$TDINDWG
 40
0.0000000116
  9
$TDUSRTIMER
 40
0.0000000116
  9
$USRTIMER
 70
     1
  9
$ANGBASE
 50
0.0
  9
$ANGDIR
 70
     0
  9
$PDMODE
 70
     0
  9
$PDSIZE
 40
-1.0
  9
$PLINEWID
 40
0.0
  9
$SPLFRAME
 70
     0
  9
$SPLINETYPE
 70
     6
  9
$SPLINESEGS
 70
     8
  9
$HANDSEED
  5
12B
  9
$SURFTAB1
 70
     6
  9
$SURFTAB2
 70
     6
  9
$SURFTYPE
 70
     6
  9
$SURFU
 70
     6
  9
$SURFV
 70
     6
  9
$UCSBASE
  2

  9
$UCSNAME
  2

  9
$UCSORG
 10
0.0
 20
0.0
 30
0.0
  9
$UCSXDIR
 10
1.0
 20
0.0
 30
0.0
  9
$UCSYDIR
 10
0.0
 20
1.0
 30
0.0
  9
$UCSORTHOREF
  2

  9
$UCSORTHOVIEW
 70
     0
  9
$UCSORGTOP
 10
0.0
 20
0.0
 30
0.0
  9
$UCSORGBOTTOM
 10
0.0
 20
0.0
 30
0.0
  9
$UCSORGLEFT
 10
0.0
 20
0.0
 30
0.0
  9
$UCSORGRIGHT
 10
0.0
 20
0.0
 30
0.0
  9
$UCSORGFRONT
 10
0.0
 20
0.0
 30
0.0
  9
$UCSORGBACK
 10
0.0
 20
0.0
 30
0.0
  9
$PUCSBASE
  2

  9
$PUCSNAME
  2

  9
$PUCSORG
 10
0.0
 20
0.0
 30
0.0
  9
$PUCSXDIR
 10
1.0
 20
0.0
 30
0.0
  9
$PUCSYDIR
 10
0.0
 20
1.0
 30
0.0
  9
$PUCSORTHOREF
  2

  9
$PUCSORTHOVIEW
 70
     0
  9
$PUCSORGTOP
 10
0.0
 20
0.0
 30
0.0
  9
$PUCSORGBOTTOM
 10
0.0
 20
0.0
 30
0.0
  9
$PUCSORGLEFT
 10
0.0
 20
0.0
 30
0.0
  9
$PUCSORGRIGHT
 10
0.0
 20
0.0
 30
0.0
  9
$PUCSORGFRONT
 10
0.0
 20
0.0
 30
0.0
  9
$PUCSORGBACK
 10
0.0
 20
0.0
 30
0.0
  9
$USERI1
 70
     0
  9
$USERI2
 70
     0
  9
$USERI3
 70
     0
  9
$USERI4
 70
     0
  9
$USERI5
 70
     0
  9
$USERR1
 40
0.0
  9
$USERR2
 40
0.0
  9
$USERR3
 40
0.0
  9
$USERR4
 40
0.0
  9
$USERR5
 40
0.0
  9
$WORLDVIEW
 70
     1
  9
$SHADEDGE
 70
     3
  9
$SHADEDIF
 70
    70
  9
$TILEMODE
 70
     1
  9
$MAXACTVP
 70
    64
  9
$PINSBASE
 10
0.0
 20
0.0
 30
0.0
  9
$PLIMCHECK
 70
     0
  9
$PEXTMIN
 10
1.0000000000E+20
 20
1.0000000000E+20
 30
1.0000000000E+20
  9
$PEXTMAX
 10
-1.0000000000E+20
 20
-1.0000000000E+20
 30
-1.0000000000E+20
  9
$PLIMMIN
 10
0.0
 20
0.0
  9
$PLIMMAX
 10
420.0
 20
297.0
  9
$UNITMODE
 70
     0
  9
$VISRETAIN
 70
     1
  9
$PLINEGEN
 70
     0
  9
$PSLTSCALE
 70
     1
  9
$TREEDEPTH
 70
  3020
  9
$CMLSTYLE
  2
Standard
  9
$CMLJUST
 70
     0
  9
$CMLSCALE
 40
20.0
  9
$PROXYGRAPHICS
 70
     1
  9
$MEASUREMENT
 70
     1
  9
$CELWEIGHT
370
    -1
  9
$ENDCAPS
280
     0
  9
$JOINSTYLE
280
     0
  9
$LWDISPLAY
290
     1
  9
$INSUNITS
 70
     4
  9
$HYPERLINKBASE
  1

  9
$STYLESHEET
  1

  9
$XEDIT
290
     1
  9
$CEPSNTYPE
380
     0
  9
$PSTYLEMODE
290
     1
  9
$FINGERPRINTGUID
  2
{304591f2-0718-4a14-8b28-04d8a1391f56}
  9
$VERSIONGUID
  2
{FAEB1C32-E019-11D5-929B-00C0DF256EC4}
  9
$EXTNAMES
290
     1
  9
$PSVPSCALE
 40
0.0
  9
$OLESTARTUP
290
     0
  0
ENDSEC
  0
SECTION
  2
CLASSES
  0
CLASS
  1
ACDBDICTIONARYWDFLT
  2
AcDbDictionaryWithDefault
  3
ObjectDBX Classes
 90
        0
280
     0
281
     0
  0
CLASS
  1
VISUALSTYLE
  2
AcDbVisualStyle
  3
ObjectDBX Classes
 90
     4095
280
     0
281
     0
  0
CLASS
  1
MATERIAL
  2
AcDbMaterial
  3
ObjectDBX Classes
 90
     1153
280
     0
281
     0
  0
CLASS
  1
SCALE
  2
AcDbScale
  3
ObjectDBX Classes
 90
     1153
280
     0
281
     0
  0
CLASS
  1
TABLESTYLE
  2
AcDbTableStyle
  3
ObjectDBX Classes
 90
     4095
280
     0
281
     0
  0
CLASS
  1
MLEADERSTYLE
  2
AcDbMLeaderStyle
  3
ACDB_MLEADERSTYLE_CLASS
 90
     4095
280
     0
281
     0
  0
CLASS
  1
SUN
  2
AcDbSun
  3
SCENEOE
 90
     1153
280
     0
281
     0
  0
CLASS
  1
ACDBPLACEHOLDER
  2
AcDbPlaceHolder
  3
ObjectDBX Classes
 90
        0
280
     0
281
     0
  0
CLASS
  1
LAYOUT
  2
AcDbLayout
  3
ObjectDBX Classes
 90
        0
280
     0
281
     0
  0
ENDSEC
  0
SECTION
  2
TABLES
  0
TABLE
  2
VPORT
  5
8
330
0
100
AcDbSymbolTable
 70
     1
  0
VPORT
  5
29
330
8
100
AcDbSymbolTableRecord
100
AcDbViewportTableRecord
  2
*Active
 70
     0
 10
0.0
 20
0.0
 11
1.0
 21
1.0
 12
139.7
 22
107.95
 13
0.0
 23
0.0
 14
10.0
 24
10.0
 15
10.0
 25
10.0
 16
0.0
 26
0.0
 36
1.0
 17
0.0
 27
0.0
 37
0.0
 40
215.9
 41
1.2941176471
 42
50.0
 43
0.0
 44
0.0
 50
0.0
 51
0.0
 71
     0
 72
  2000
 73
     1
 74
     3
 75
     0
 76
     0
 77
     0
 78
     0
281
     0
 65
     1
110
0.0
120
0.0
130
0.0
111
1.0
121
0.0
131
0.0
112
0.0
122
1.0
132
0.0
 79
     0
146
0.0
  0
ENDTAB
  0
TABLE
  2
LTYPE
  5
5
330
0
100
AcDbSymbolTable
 70
     6
  0
LTYPE
  5
14
330
5
100
AcDbSymbolTableRecord
100
AcDbLinetypeTableRecord
  2
ByBlock
 70
     0
  3

 72
    65
 73
     0
 40
0.0
  0
LTYPE
  5
15
330
5
100
AcDbSymbolTableRecord
100
AcDbLinetypeTableRecord
  2
ByLayer
 70
     0
  3

 72
    65
 73
     0
 40
0.0
  0
LTYPE
  5
16
330
5
100
AcDbSymbolTableRecord
100
AcDbLinetypeTableRecord
  2
Continuous
 70
     0
  3
Solid line
 72
    65
 73
     0
 40
0.0
  0
LTYPE
  5
6E
330
5
100
AcDbSymbolTableRecord
100
AcDbLinetypeTableRecord
  2
HIDDEN
 70
     0
  3
Hidden __ __ __ __ __ __ __ __ __ __ __ __ __ __
 72
    65
 73
     2
 40
1.905
 49
1.27
 74
     0
 49
-0.635
 74
     0
  0
LTYPE
  5
6F
330
5
100
AcDbSymbolTableRecord
100
AcDbLinetypeTableRecord
  2
PHANTOM
 70
     0
  3
Phantom ______  __  __  ______  __  __  ______
 72
    65
 73
     6
 40
12.7
 49
6.35
 74
     0
 49
-1.27
 74
     0
 49
1.27
 74
     0
 49
-1.27
 74
     0
 49
1.27
 74
     0
 49
-1.27
 74
     0
  0
LTYPE
  5
70
330
5
100
AcDbSymbolTableRecord
100
AcDbLinetypeTableRecord
  2
CENTER
 70
     0
  3
Center ____ _ ____ _ ____ _ ____ _ ____ _ ____
 72
    65
 73
     4
 40
10.16
 49
6.35
 74
     0
 49
-1.27
 74
     0
 49
1.27
 74
     0
 49
-1.27
 74
     0
  0
LTYPE
  5
71
330
5
100
AcDbSymbolTableRecord
100
AcDbLinetypeTableRecord
  2
CENTERX2
 70
     0
  3
Center (2x) ________  __  ________  __  _____
 72
    65
 73
     4
 40
20.32
 49
12.7
 74
     0
 49
-2.54
 74
     0
 49
2.54
 74
     0
 49
-2.54
 74
     0
  0
LTYPE
  5
72
330
5
100
AcDbSymbolTableRecord
100
AcDbLinetypeTableRecord
  2
DOT2
 70
     0
  3
Dot (.5x) ........................................
 72
    65
 73
     2
 40
0.635
 49
0.0
 74
     0
 49
-0.635
 74
     0
  0
ENDTAB
  0
TABLE
  2
LAYER
  5
2
330
0
100
AcDbSymbolTable
 70
    17
  0
LAYER
  5
10
330
2
100
AcDbSymbolTableRecord
100
AcDbLayerTableRecord
  2
0
 70
     0
 62
     7
  6
Continuous
370
    -3
390
F
  0
LAYER
  5
73
330
2
100
AcDbSymbolTableRecord
100
AcDbLayerTableRecord
  2
FORMAT
 70
     0
 62
     7
  6
Continuous
370
    -3
390
F
  0
LAYER
  5
74
330
2
100
AcDbSymbolTableRecord
100
AcDbLayerTableRecord
  2
YARDIMCI_GEOMETRI
 70
     0
 62
    -6
  6
Continuous
290
     0
370
    -3
390
F
  0
LAYER
  5
75
330
2
100
AcDbSymbolTableRecord
100
AcDbLayerTableRecord
  2
SAYFA_CERCEVESI
 70
     0
 62
     7
  6
Continuous
370
    25
390
F
  0
LAYER
  5
76
330
2
100
AcDbSymbolTableRecord
100
AcDbLayerTableRecord
  2
ANTET
 70
     0
 62
     7
  6
Continuous
370
    -3
390
F
  0
LAYER
  5
77
330
2
100
AcDbSymbolTableRecord
100
AcDbLayerTableRecord
  2
OLCU
 70
     0
 62
   150
  6
Continuous
370
    -3
390
F
  0
LAYER
  5
78
330
2
100
AcDbSymbolTableRecord
100
AcDbLayerTableRecord
  2
METIN
 70
     0
 62
    96
  6
Continuous
370
    -3
390
F
  0
LAYER
  5
79
330
2
100
AcDbSymbolTableRecord
100
AcDbLayerTableRecord
  2
BALON
 70
     0
 62
     5
  6
Continuous
370
    -3
390
F
  0
LAYER
  5
7A
330
2
100
AcDbSymbolTableRecord
100
AcDbLayerTableRecord
  2
VURGU
 70
     0
 62
     7
  6
Continuous
370
    -3
390
F
  0
LAYER
  5
7B
330
2
100
AcDbSymbolTableRecord
100
AcDbLayerTableRecord
  2
SILIK
 70
     0
 62
     7
  6
Continuous
370
    -3
390
F
  0
LAYER
  5
7C
330
2
100
AcDbSymbolTableRecord
100
AcDbLayerTableRecord
  2
MODEL
 70
     0
 62
     7
  6
Continuous
370
    -3
390
F
  0
LAYER
  5
7D
330
2
100
AcDbSymbolTableRecord
100
AcDbLayerTableRecord
  2
DETAYLANDıRMA
 70
     0
 62
   190
  6
Continuous
370
    -3
390
F
  0
LAYER
  5
7E
330
2
100
AcDbSymbolTableRecord
100
AcDbLayerTableRecord
  2
TOLERANS
 70
     0
 62
   230
  6
Continuous
370
    -3
390
F
  0
LAYER
  5
7F
330
2
100
AcDbSymbolTableRecord
100
AcDbLayerTableRecord
  2
MERKEZ_CIZGILERI
 70
     0
 62
    30
  6
Continuous
370
    -3
390
F
  0
LAYER
  5
80
330
2
100
AcDbSymbolTableRecord
100
AcDbLayerTableRecord
  2
KESIT-DETAY_CIZGILERI
 70
     0
 62
     7
  6
Continuous
370
    -3
390
F
  0
LAYER
  5
81
330
2
100
AcDbSymbolTableRecord
100
AcDbLayerTableRecord
  2
\U+041E\U+0421\U+0415\U+0412\U+042B\U+0415
 70
     0
 62
     7
  6
Continuous
370
    -3
390
F
  0
LAYER
  5
82
330
2
100
AcDbSymbolTableRecord
100
AcDbLayerTableRecord
  2
\U+0412\U+041E\U+0414\U+042F\U+041D\U+042B\U+0415_\U+0417\U+041D\U+0410\U+041A\U+0418
 70
     0
 62
    11
  6
Continuous
370
    -3
390
F
  0
ENDTAB
  0
TABLE
  2
STYLE
  5
3
330
0
100
AcDbSymbolTable
 70
     1
  0
STYLE
  5
11
330
3
100
AcDbSymbolTableRecord
100
AcDbTextStyleTableRecord
  2
Standard
 70
     0
 40
0.0
 41
1.0
 50
0.0
 71
     0
 42
3.5
  3
txt
  4

  0
ENDTAB
  0
TABLE
  2
VIEW
  5
6
330
0
100
AcDbSymbolTable
 70
     0
  0
ENDTAB
  0
TABLE
  2
UCS
  5
7
330
0
100
AcDbSymbolTable
 70
     0
  0
ENDTAB
  0
TABLE
  2
APPID
  5
9
330
0
100
AcDbSymbolTable
 70
     1
  0
APPID
  5
12
330
9
100
AcDbSymbolTableRecord
100
AcDbRegAppTableRecord
  2
ACAD
 70
     0
  0
ENDTAB
  0
TABLE
  2
DIMSTYLE
  5
A
330
0
100
AcDbSymbolTable
 70
     1
100
AcDbDimStyleTable
  0
DIMSTYLE
105
27
330
A
100
AcDbSymbolTableRecord
100
AcDbDimStyleTableRecord
  2
ISO-25
 70
     0
 41
2.5
 42
0.625
 43
3.75
 44
1.25
 73
     0
 74
     0
 77
     1
 78
     8
140
2.5
141
2.5
143
0.0393700787
147
0.625
171
     3
172
     1
178
     0
271
     2
272
     2
274
     3
278
    44
283
     0
284
     8
340
11
  0
ENDTAB
  0
TABLE
  2
BLOCK_RECORD
  5
1
330
0
100
AcDbSymbolTable
 70
     4
  0
BLOCK_RECORD
  5
1F
330
1
100
AcDbSymbolTableRecord
100
AcDbBlockTableRecord
  2
*Model_Space
340
22
  0
BLOCK_RECORD
  5
1B
330
1
100
AcDbSymbolTableRecord
100
AcDbBlockTableRecord
  2
*Paper_Space
340
1E
  0
BLOCK_RECORD
  5
23
330
1
100
AcDbSymbolTableRecord
100
AcDbBlockTableRecord
  2
*Paper_Space0
340
26
  0
BLOCK_RECORD
  5
8C
330
1
100
AcDbSymbolTableRecord
100
AcDbBlockTableRecord
  2
SW_CENTERMARKSYMBOL_0
340
0
102
{BLKREFS
331
97
102
}
  0
BLOCK_RECORD
  5
C6
330
1
100
AcDbSymbolTableRecord
100
AcDbBlockTableRecord
  2
SW_CENTERMARKSYMBOL_1
340
0
102
{BLKREFS
331
D1
102
}
  0
BLOCK_RECORD
  5
D2
330
1
100
AcDbSymbolTableRecord
100
AcDbBlockTableRecord
  2
SW_CENTERMARKSYMBOL_2
340
0
102
{BLKREFS
331
DD
102
}
  0
ENDTAB
  0
ENDSEC
  0
SECTION
  2
BLOCKS
  0
BLOCK
  5
20
330
1F
100
AcDbEntity
  8
0
100
AcDbBlockBegin
  2
*Model_Space
 70
     0
 10
0.0
 20
0.0
 30
0.0
  3
*Model_Space
  1

  0
ENDBLK
  5
21
330
1F
100
AcDbEntity
  8
0
100
AcDbBlockEnd
  0
BLOCK
  5
1C
330
1B
100
AcDbEntity
 67
     1
  8
0
100
AcDbBlockBegin
  2
*Paper_Space
 70
     0
 10
0.0
 20
0.0
 30
0.0
  3
*Paper_Space
  1

  0
ENDBLK
  5
1D
330
1B
100
AcDbEntity
 67
     1
  8
0
100
AcDbBlockEnd
  0
BLOCK
  5
24
330
23
100
AcDbEntity
  8
0
100
AcDbBlockBegin
  2
*Paper_Space0
 70
     0
 10
0.0
 20
0.0
 30
0.0
  3
*Paper_Space0
  1

  0
ENDBLK
  5
25
330
23
100
AcDbEntity
  8
0
100
AcDbBlockEnd
  0
BLOCK
  5
8D
330
8C
100
AcDbEntity
  8
0
100
AcDbBlockBegin
  2
SW_CENTERMARKSYMBOL_0
 70
     0
 10
0.0
 20
0.0
 30
0.0
  3
SW_CENTERMARKSYMBOL_0
  1

  0
LINE
  5
8F
330
8C
100
AcDbEntity
  8
FORMAT
 62
     0
100
AcDbLine
 10
0.0
 20
0.0
 30
0.0
 11
0.0
 21
2.5
 31
0.0
  0
LINE
  5
90
330
8C
100
AcDbEntity
  8
FORMAT
 62
     0
100
AcDbLine
 10
0.0
 20
0.0
 30
0.0
 11
-2.5
 21
0.0
 31
0.0
  0
LINE
  5
91
330
8C
100
AcDbEntity
  8
FORMAT
 62
     0
100
AcDbLine
 10
0.0
 20
0.0
 30
0.0
 11
0.0
 21
-2.5
 31
0.0
  0
LINE
  5
92
330
8C
100
AcDbEntity
  8
FORMAT
 62
     0
100
AcDbLine
 10
0.0
 20
0.0
 30
0.0
 11
2.5
 21
0.0
 31
0.0
  0
LINE
  5
93
330
8C
100
AcDbEntity
  8
FORMAT
 62
     0
100
AcDbLine
 10
0.0
 20
5.0
 30
0.0
 11
0.0
 21
110.5
 31
0.0
  0
LINE
  5
94
330
8C
100
AcDbEntity
  8
FORMAT
 62
     0
100
AcDbLine
 10
-5.0
 20
0.0
 30
0.0
 11
-110.5
 21
0.0
 31
0.0
  0
LINE
  5
95
330
8C
100
AcDbEntity
  8
FORMAT
 62
     0
100
AcDbLine
 10
0.0
 20
-5.0
 30
0.0
 11
0.0
 21
-110.5
 31
0.0
  0
LINE
  5
96
330
8C
100
AcDbEntity
  8
FORMAT
 62
     0
100
AcDbLine
 10
5.0
 20
0.0
 30
0.0
 11
110.5
 21
0.0
 31
0.0
  0
ENDBLK
  5
8E
330
8C
100
AcDbEntity
  8
0
100
AcDbBlockEnd
  0
BLOCK
  5
C7
330
C6
100
AcDbEntity
  8
0
100
AcDbBlockBegin
  2
SW_CENTERMARKSYMBOL_1
 70
     0
 10
0.0
 20
0.0
 30
0.0
  3
SW_CENTERMARKSYMBOL_1
  1

  0
LINE
  5
C9
330
C6
100
AcDbEntity
  8
FORMAT
 62
     0
100
AcDbLine
 10
0.0
 20
0.0
 30
0.0
 11
0.0
 21
2.5
 31
0.0
  0
LINE
  5
CA
330
C6
100
AcDbEntity
  8
FORMAT
 62
     0
100
AcDbLine
 10
0.0
 20
0.0
 30
0.0
 11
-2.5
 21
0.0
 31
0.0
  0
LINE
  5
CB
330
C6
100
AcDbEntity
  8
FORMAT
 62
     0
100
AcDbLine
 10
0.0
 20
0.0
 30
0.0
 11
0.0
 21
-2.5
 31
0.0
  0
LINE
  5
CC
330
C6
100
AcDbEntity
  8
FORMAT
 62
     0
100
AcDbLine
 10
0.0
 20
0.0
 30
0.0
 11
2.5
 21
0.0
 31
0.0
  0
LINE
  5
CD
330
C6
100
AcDbEntity
  8
FORMAT
 62
     0
100
AcDbLine
 10
0.0
 20
5.0
 30
0.0
 11
0.0
 21
9.5
 31
0.0
  0
LINE
  5
CE
330
C6
100
AcDbEntity
  8
FORMAT
 62
     0
100
AcDbLine
 10
-5.0
 20
0.0
 30
0.0
 11
-9.5
 21
0.0
 31
0.0
  0
LINE
  5
CF
330
C6
100
AcDbEntity
  8
FORMAT
 62
     0
100
AcDbLine
 10
0.0
 20
-5.0
 30
0.0
 11
0.0
 21
-9.5
 31
0.0
  0
LINE
  5
D0
330
C6
100
AcDbEntity
  8
FORMAT
 62
     0
100
AcDbLine
 10
5.0
 20
0.0
 30
0.0
 11
9.5
 21
0.0
 31
0.0
  0
ENDBLK
  5
C8
330
C6
100
AcDbEntity
  8
0
100
AcDbBlockEnd
  0
BLOCK
  5
D3
330
D2
100
AcDbEntity
  8
0
100
AcDbBlockBegin
  2
SW_CENTERMARKSYMBOL_2
 70
     0
 10
0.0
 20
0.0
 30
0.0
  3
SW_CENTERMARKSYMBOL_2
  1

  0
LINE
  5
D5
330
D2
100
AcDbEntity
  8
FORMAT
 62
     0
100
AcDbLine
 10
0.0
 20
0.0
 30
0.0
 11
0.0
 21
2.5
 31
0.0
  0
LINE
  5
D6
330
D2
100
AcDbEntity
  8
FORMAT
 62
     0
100
AcDbLine
 10
0.0
 20
0.0
 30
0.0
 11
-2.5
 21
0.0
 31
0.0
  0
LINE
  5
D7
330
D2
100
AcDbEntity
  8
FORMAT
 62
     0
100
AcDbLine
 10
0.0
 20
0.0
 30
0.0
 11
0.0
 21
-2.5
 31
0.0
  0
LINE
  5
D8
330
D2
100
AcDbEntity
  8
FORMAT
 62
     0
100
AcDbLine
 10
0.0
 20
0.0
 30
0.0
 11
2.5
 21
0.0
 31
0.0
  0
LINE
  5
D9
330
D2
100
AcDbEntity
  8
FORMAT
 62
     0
100
AcDbLine
 10
0.0
 20
5.0
 30
0.0
 11
0.0
 21
9.5
 31
0.0
  0
LINE
  5
DA
330
D2
100
AcDbEntity
  8
FORMAT
 62
     0
100
AcDbLine
 10
-5.0
 20
0.0
 30
0.0
 11
-9.5
 21
0.0
 31
0.0
  0
LINE
  5
DB
330
D2
100
AcDbEntity
  8
FORMAT
 62
     0
100
AcDbLine
 10
0.0
 20
-5.0
 30
0.0
 11
0.0
 21
-9.5
 31
0.0
  0
LINE
  5
DC
330
D2
100
AcDbEntity
  8
FORMAT
 62
     0
100
AcDbLine
 10
5.0
 20
0.0
 30
0.0
 11
9.5
 21
0.0
 31
0.0
  0
ENDBLK
  5
D4
330
D2
100
AcDbEntity
  8
0
100
AcDbBlockEnd
  0
ENDSEC
  0
SECTION
  2
ENTITIES
  0
LINE
  5
83
330
1F
100
AcDbEntity
  8
0
  6
Continuous
 62
     7
370
    25
100
AcDbLine
 10
129.1701403815
 20
9.8967746291
 30
0.0
 11
129.1701403815
 21
-5.3245829878
 31
0.0
  0
LINE
  5
84
330
1F
100
AcDbEntity
  8
0
  6
Continuous
 62
     7
370
    25
100
AcDbLine
 10
143.1701403815
 20
-5.3245829878
 30
0.0
 11
143.1701403815
 21
9.9019721793
 31
0.0
  0
CIRCLE
  5
85
330
1F
100
AcDbEntity
  8
0
  6
Continuous
 62
     7
370
    25
100
AcDbCircle
 10
136.1701403815
 20
117.6754170122
 30
0.0
 40
108.0
  0
CIRCLE
  5
86
330
1F
100
AcDbEntity
  8
0
  6
Continuous
 62
     7
370
    25
100
AcDbCircle
 10
136.1701403815
 20
117.6754170122
 30
0.0
 40
90.0
  0
LINE
  5
87
330
1F
100
AcDbEntity
  8
0
  6
Continuous
 62
     7
370
    25
100
AcDbLine
 10
136.1701403815
 20
-5.3245829878
 30
0.0
 11
143.1701403815
 21
-5.3245829878
 31
0.0
  0
LINE
  5
88
330
1F
100
AcDbEntity
  8
0
  6
Continuous
 62
     7
370
    25
100
AcDbLine
 10
129.1701403815
 20
-5.3245829878
 30
0.0
 11
136.1701403815
 21
-5.3245829878
 31
0.0
  0
CIRCLE
  5
89
330
1F
100
AcDbEntity
  8
0
  6
Continuous
 62
     7
370
    25
100
AcDbCircle
 10
136.1701403815
 20
117.6754170122
 30
0.0
 40
88.99859724775833
  0
CIRCLE
  5
8A
330
1F
100
AcDbEntity
  8
0
  6
Continuous
 62
     7
370
    25
100
AcDbCircle
 10
136.1701403815
 20
117.6754170122
 30
0.0
 40
63.50140275224166
  0
CIRCLE
  5
8B
330
1F
100
AcDbEntity
  8
0
  6
Continuous
 62
     7
370
    25
100
AcDbCircle
 10
136.1701403815
 20
117.6754170122
 30
0.0
 40
62.5
  0
INSERT
  5
97
330
1F
100
AcDbEntity
  8
FORMAT
 62
     7
100
AcDbBlockReference
  2
SW_CENTERMARKSYMBOL_0
 10
136.1701403815
 20
117.6754170122
 30
0.0
  0
LINE
  5
98
330
1F
100
AcDbEntity
  8
0
  6
Continuous
 62
     7
370
    25
100
AcDbLine
 10
-231.9948406922
 20
225.6754170122
 30
0.0
 11
-346.8390603144
 21
225.6754170122
 31
0.0
  0
LINE
  5
99
330
1F
100
AcDbEntity
  8
0
  6
Continuous
 62
     7
370
    25
100
AcDbLine
 10
-331.925253707
 20
9.6754170122
 30
0.0
 11
-231.9948406922
 21
9.6754170122
 31
0.0
  0
LINE
  5
9A
330
1F
100
AcDbEntity
  8
0
  6
Continuous
 62
     7
370
    25
100
AcDbLine
 10
-346.8390603144
 20
9.6754170122
 30
0.0
 11
-345.8390603144
 21
9.6754170122
 31
0.0
  0
ARC
  5
9B
330
1F
100
AcDbEntity
  8
0
  6
Continuous
 62
     7
370
    25
100
AcDbCircle
 10
-231.9948406922
 20
223.6754170122
 30
0.0
 40
2.000000000000064
100
AcDbArc
 50
29.9536081678
 51
90.0
  0
ARC
  5
9C
330
1F
100
AcDbEntity
  8
0
  6
Continuous
 62
     7
370
    25
100
AcDbCircle
 10
-231.9948406922
 20
11.6754170122
 30
0.0
 40
2.000000000000059
100
AcDbArc
 50
270.0
 51
330.0463918322
  0
LINE
  5
9D
330
1F
100
AcDbEntity
  8
0
  6
Continuous
 62
     7
370
    25
100
AcDbLine
 10
-230.2619807623
 20
10.6768197645
 30
0.0
 11
-214.4161398666
 21
38.17401426
 31
0.0
  0
LINE
  5
9E
330
1F
100
AcDbEntity
  8
0
  6
Continuous
 62
     7
370
    25
100
AcDbLine
 10
-214.4161398666
 20
197.1768197645
 30
0.0
 11
-230.2619807623
 21
224.67401426
 31
0.0
  0
ARC
  5
9F
330
1F
100
AcDbEntity
  8
0
  6
Continuous
 62
     7
370
    25
100
AcDbCircle
 10
-212.6832799366
 20
198.1754170122
 30
0.0
 40
2.0
100
AcDbArc
 50
209.9536081678
 51
270.0
  0
ARC
  5
A0
330
1F
100
AcDbEntity
  8
0
  6
Continuous
 62
     7
370
    25
100
AcDbCircle
 10
-212.6832799366
 20
37.1754170122
 30
0.0
 40
2.000000000000011
100
AcDbArc
 50
90.0
 51
150.0463918322
  0
LINE
  5
A1
330
1F
100
AcDbEntity
  8
0
  6
Continuous
 62
     7
370
    25
100
AcDbLine
 10
-122.8390603144
 20
196.1754170122
 30
0.0
 11
-212.6832799366
 21
196.1754170122
 31
0.0
  0
LINE
  5
A2
330
1F
100
AcDbEntity
  8
0
  6
Continuous
 62
     7
370
    25
100
AcDbLine
 10
-123.9258848595
 20
39.1754170122
 30
0.0
 11
-122.8390603144
 21
39.1754170122
 31
0.0
  0
LINE
  5
A3
330
1F
100
AcDbEntity
  8
0
  6
Continuous
 62
     7
370
    25
100
AcDbLine
 10
-212.6832799366
 20
39.1754170122
 30
0.0
 11
-137.8390603144
 21
39.1754170122
 31
0.0
  0
LINE
  5
A4
330
1F
100
AcDbEntity
  8
0
  6
Continuous
 62
     7
370
    25
100
AcDbLine
 10
-137.8390603144
 20
39.1754170122
 30
0.0
 11
-137.8390603144
 21
30.1754170122
 31
0.0
  0
LINE
  5
A5
330
1F
100
AcDbEntity
  8
0
  6
Continuous
 62
     7
370
    25
100
AcDbLine
 10
-123.8390603144
 20
30.1754170122
 30
0.0
 11
-123.8390603144
 21
39.1754170122
 31
0.0
  0
LINE
  5
A6
330
1F
100
AcDbEntity
  8
0
  6
Continuous
 62
     7
370
    25
100
AcDbLine
 10
-345.8390603144
 20
9.6754170122
 30
0.0
 11
-345.8390603144
 21
-5.3245829878
 31
0.0
  0
LINE
  5
A7
330
1F
100
AcDbEntity
  8
0
  6
Continuous
 62
     7
370
    25
100
AcDbLine
 10
-331.8390603144
 20
-5.3245829878
 30
0.0
 11
-331.8390603144
 21
9.6754170122
 31
0.0
  0
LINE
  5
A8
330
1F
100
AcDbEntity
  8
0
  6
Continuous
 62
     7
370
    25
100
AcDbLine
 10
-346.8390603144
 20
225.6754170122
 30
0.0
 11
-346.8390603144
 21
9.6754170122
 31
0.0
  0
ARC
  5
A9
330
1F
100
AcDbEntity
  8
0
  6
Continuous
 62
     7
370
    25
100
AcDbCircle
 10
-338.8392685498
 20
-98.1987423862
 30
0.0
 40
108.1010238188067
100
AcDbArc
 50
86.3329259913
 51
93.7126319938
  0
LINE
  5
AA
330
1F
100
AcDbEntity
  8
0
  6
Continuous
 62
     7
370
    25
100
AcDbLine
 10
-122.8390603144
 20
196.1754170122
 30
0.0
 11
-122.8390603144
 21
39.1754170122
 31
0.0
  0
ARC
  5
AB
330
1F
100
AcDbEntity
  8
0
  6
Continuous
 62
     7
370
    25
100
AcDbCircle
 10
-130.8392997983
 20
-39.1557460395
 30
0.0
 40
78.64329438878943
100
AcDbArc
 50
84.9567033484
 51
95.106451523
  0
LINE
  5
AC
330
1F
100
AcDbEntity
  8
0
  6
Continuous
 62
     7
370
    25
100
AcDbLine
 10
-137.8390603144
 20
30.1754170122
 30
0.0
 11
-123.8390603144
 21
30.1754170122
 31
0.0
  0
LINE
  5
AD
330
1F
100
AcDbEntity
  8
0
  6
Continuous
 62
     7
370
    25
100
AcDbLine
 10
-345.8390603144
 20
-5.3245829878
 30
0.0
 11
-331.8390603144
 21
-5.3245829878
 31
0.0
  0
LINE
  5
AE
330
1F
100
AcDbEntity
  8
0
  6
Continuous
 62
     1
370
    25
100
AcDbLine
 10
-231.9948406922
 20
225.6754170122
 30
0.0
 11
-231.9948406922
 21
9.6754170122
 31
0.0
  0
LINE
  5
AF
330
1F
100
AcDbEntity
  8
0
  6
Continuous
 62
     1
370
    25
100
AcDbLine
 10
-230.2619807623
 20
224.67401426
 30
0.0
 11
-230.2619807623
 21
10.6768197645
 31
0.0
  0
LINE
  5
B0
330
1F
100
AcDbEntity
  8
0
  6
Continuous
 62
     1
370
    25
100
AcDbLine
 10
-214.4161398666
 20
197.1768197645
 30
0.0
 11
-214.4161398666
 21
38.17401426
 31
0.0
  0
LINE
  5
B1
330
1F
100
AcDbEntity
  8
0
  6
Continuous
 62
     1
370
    25
100
AcDbLine
 10
-212.6832799366
 20
196.1754170122
 30
0.0
 11
-212.6832799366
 21
39.1754170122
 31
0.0
  0
ARC
  5
B2
330
1F
100
AcDbEntity
  8
0
  6
Continuous
 62
     7
370
    25
100
AcDbCircle
 10
242.1701403815
 20
403.0722692127
 30
0.0
 40
2.000000000000039
100
AcDbArc
 50
299.9536081678
 51
0.0
  0
ARC
  5
B3
330
1F
100
AcDbEntity
  8
0
  6
Continuous
 62
     7
370
    25
100
AcDbCircle
 10
30.1701403815
 20
403.0722692127
 30
0.0
 40
2.000000000000033
100
AcDbArc
 50
180.0
 51
240.0463918322
  0
LINE
  5
B4
330
1F
100
AcDbEntity
  8
0
  6
Continuous
 62
     7
370
    25
100
AcDbLine
 10
244.1701403815
 20
403.0722692127
 30
0.0
 11
244.1701403815
 21
517.9164888349
 31
0.0
  0
LINE
  5
B5
330
1F
100
AcDbEntity
  8
0
  6
Continuous
 62
     7
370
    25
100
AcDbLine
 10
28.1701403815
 20
517.9164888349
 30
0.0
 11
28.1701403815
 21
403.0722692127
 31
0.0
  0
LINE
  5
B6
330
1F
100
AcDbEntity
  8
0
  6
Continuous
 62
     7
370
    25
100
AcDbLine
 10
29.1715431337
 20
401.3394092827
 30
0.0
 11
56.6687376292
 21
385.493568387
 31
0.0
  0
LINE
  5
B7
330
1F
100
AcDbEntity
  8
0
  6
Continuous
 62
     7
370
    25
100
AcDbLine
 10
215.6715431337
 20
385.493568387
 30
0.0
 11
243.1687376292
 21
401.3394092827
 31
0.0
  0
ARC
  5
B8
330
1F
100
AcDbEntity
  8
0
  6
Continuous
 62
     7
370
    25
100
AcDbCircle
 10
216.6701403815
 20
383.7607084571
 30
0.0
 40
2.0
100
AcDbArc
 50
119.9536081678
 51
180.0
  0
ARC
  5
B9
330
1F
100
AcDbEntity
  8
0
  6
Continuous
 62
     7
370
    25
100
AcDbCircle
 10
55.6701403815
 20
383.7607084571
 30
0.0
 40
2.0
100
AcDbArc
 50
0.0
 51
60.0463918322
  0
LINE
  5
BA
330
1F
100
AcDbEntity
  8
0
  6
Continuous
 62
     7
370
    25
100
AcDbLine
 10
214.6701403815
 20
293.9164888349
 30
0.0
 11
214.6701403815
 21
383.7607084571
 31
0.0
  0
LINE
  5
BB
330
1F
100
AcDbEntity
  8
0
  6
Continuous
 62
     7
370
    25
100
AcDbLine
 10
57.6701403815
 20
383.7607084571
 30
0.0
 11
57.6701403815
 21
293.9164888349
 31
0.0
  0
CIRCLE
  5
BC
330
1F
100
AcDbEntity
  8
0
  6
Continuous
 62
     7
370
    25
100
AcDbCircle
 10
136.1701403815
 20
509.9164888349
 30
0.0
 40
7.000000000000057
  0
CIRCLE
  5
BD
330
1F
100
AcDbEntity
  8
0
  6
Continuous
 62
     7
370
    25
100
AcDbCircle
 10
136.1701403815
 20
509.9164888349
 30
0.0
 40
5.000000000000057
  0
LINE
  5
BE
330
1F
100
AcDbEntity
  8
0
  6
Continuous
 62
     7
370
    25
100
AcDbLine
 10
244.1701403815
 20
517.9164888349
 30
0.0
 11
28.1701403815
 21
517.9164888349
 31
0.0
  0
CIRCLE
  5
BF
330
1F
100
AcDbEntity
  8
0
  6
Continuous
 62
     7
370
    25
100
AcDbCircle
 10
136.1701403815
 20
301.9164888349
 30
0.0
 40
5.0
  0
CIRCLE
  5
C0
330
1F
100
AcDbEntity
  8
0
  6
Continuous
 62
     7
370
    25
100
AcDbCircle
 10
136.1701403815
 20
301.9164888349
 30
0.0
 40
7.0
  0
LINE
  5
C1
330
1F
100
AcDbEntity
  8
0
  6
Continuous
 62
     7
370
    25
100
AcDbLine
 10
214.6701403815
 20
293.9164888349
 30
0.0
 11
57.6701403815
 21
293.9164888349
 31
0.0
  0
LINE
  5
C2
330
1F
100
AcDbEntity
  8
0
  6
Continuous
 62
     1
370
    25
100
AcDbLine
 10
243.1687376292
 20
401.3394092827
 30
0.0
 11
29.1715431337
 21
401.3394092827
 31
0.0
  0
LINE
  5
C3
330
1F
100
AcDbEntity
  8
0
  6
Continuous
 62
     1
370
    25
100
AcDbLine
 10
244.1701403815
 20
403.0722692127
 30
0.0
 11
28.1701403815
 21
403.0722692127
 31
0.0
  0
LINE
  5
C4
330
1F
100
AcDbEntity
  8
0
  6
Continuous
 62
     1
370
    25
100
AcDbLine
 10
215.6715431337
 20
385.493568387
 30
0.0
 11
56.6687376292
 21
385.493568387
 31
0.0
  0
LINE
  5
C5
330
1F
100
AcDbEntity
  8
0
  6
Continuous
 62
     1
370
    25
100
AcDbLine
 10
214.6701403815
 20
383.7607084571
 30
0.0
 11
57.6701403815
 21
383.7607084571
 31
0.0
  0
INSERT
  5
D1
330
1F
100
AcDbEntity
  8
FORMAT
 62
     7
100
AcDbBlockReference
  2
SW_CENTERMARKSYMBOL_1
 10
136.1701403815
 20
301.9164888349
 30
0.0
  0
INSERT
  5
DD
330
1F
100
AcDbEntity
  8
FORMAT
 62
     7
100
AcDbBlockReference
  2
SW_CENTERMARKSYMBOL_2
 10
136.1701403815
 20
509.9164888349
 30
0.0
  0
LINE
  5
DE
330
1F
100
AcDbEntity
  8
0
  6
Continuous
 62
     7
370
    25
100
AcDbLine
 10
623.1893510464
 20
9.6754170122
 30
0.0
 11
624.1893510464
 21
9.6754170122
 31
0.0
  0
LINE
  5
DF
330
1F
100
AcDbEntity
  8
0
  6
Continuous
 62
     7
370
    25
100
AcDbLine
 10
509.3451314242
 20
9.6754170122
 30
0.0
 11
609.275544439
 21
9.6754170122
 31
0.0
  0
LINE
  5
E0
330
1F
100
AcDbEntity
  8
0
  6
Continuous
 62
     7
370
    25
100
AcDbLine
 10
624.1893510464
 20
225.6754170122
 30
0.0
 11
509.3451314242
 21
225.6754170122
 31
0.0
  0
ARC
  5
E1
330
1F
100
AcDbEntity
  8
0
  6
Continuous
 62
     7
370
    25
100
AcDbCircle
 10
509.3451314242
 20
11.6754170122
 30
0.0
 40
2.000000000000016
100
AcDbArc
 50
209.9536081678
 51
270.0
  0
ARC
  5
E2
330
1F
100
AcDbEntity
  8
0
  6
Continuous
 62
     7
370
    25
100
AcDbCircle
 10
509.3451314242
 20
223.6754170122
 30
0.0
 40
2.0
100
AcDbArc
 50
90.0
 51
150.0463918322
  0
LINE
  5
E3
330
1F
100
AcDbEntity
  8
0
  6
Continuous
 62
     7
370
    25
100
AcDbLine
 10
507.6122714943
 20
224.67401426
 30
0.0
 11
491.7664305986
 21
197.1768197645
 31
0.0
  0
LINE
  5
E4
330
1F
100
AcDbEntity
  8
0
  6
Continuous
 62
     7
370
    25
100
AcDbLine
 10
491.7664305986
 20
38.17401426
 30
0.0
 11
507.6122714943
 21
10.6768197645
 31
0.0
  0
ARC
  5
E5
330
1F
100
AcDbEntity
  8
0
  6
Continuous
 62
     7
370
    25
100
AcDbCircle
 10
490.0335706686
 20
37.1754170122
 30
0.0
 40
2.000000000000035
100
AcDbArc
 50
29.9536081678
 51
90.0
  0
ARC
  5
E6
330
1F
100
AcDbEntity
  8
0
  6
Continuous
 62
     7
370
    25
100
AcDbCircle
 10
490.0335706686
 20
198.1754170122
 30
0.0
 40
2.000000000000024
100
AcDbArc
 50
270.0
 51
330.0463918322
  0
LINE
  5
E7
330
1F
100
AcDbEntity
  8
0
  6
Continuous
 62
     7
370
    25
100
AcDbLine
 10
415.1893510464
 20
39.1754170122
 30
0.0
 11
490.0335706686
 21
39.1754170122
 31
0.0
  0
LINE
  5
E8
330
1F
100
AcDbEntity
  8
0
  6
Continuous
 62
     7
370
    25
100
AcDbLine
 10
400.1893510464
 20
39.1754170122
 30
0.0
 11
401.2761755915
 21
39.1754170122
 31
0.0
  0
LINE
  5
E9
330
1F
100
AcDbEntity
  8
0
  6
Continuous
 62
     7
370
    25
100
AcDbLine
 10
490.0335706686
 20
196.1754170122
 30
0.0
 11
400.1893510464
 21
196.1754170122
 31
0.0
  0
LINE
  5
EA
330
1F
100
AcDbEntity
  8
0
  6
Continuous
 62
     7
370
    25
100
AcDbLine
 10
401.1893510464
 20
39.1830585395
 30
0.0
 11
401.1893510464
 21
30.1754170122
 31
0.0
  0
LINE
  5
EB
330
1F
100
AcDbEntity
  8
0
  6
Continuous
 62
     7
370
    25
100
AcDbLine
 10
415.1893510464
 20
30.1754170122
 30
0.0
 11
415.1893510464
 21
39.1754170122
 31
0.0
  0
LINE
  5
EC
330
1F
100
AcDbEntity
  8
0
  6
Continuous
 62
     7
370
    25
100
AcDbLine
 10
609.1893510464
 20
9.6809282414
 30
0.0
 11
609.1893510464
 21
-5.3245829878
 31
0.0
  0
LINE
  5
ED
330
1F
100
AcDbEntity
  8
0
  6
Continuous
 62
     7
370
    25
100
AcDbLine
 10
623.1893510464
 20
-5.3245829878
 30
0.0
 11
623.1893510464
 21
9.6754170122
 31
0.0
  0
LINE
  5
EE
330
1F
100
AcDbEntity
  8
0
  6
Continuous
 62
     7
370
    25
100
AcDbLine
 10
624.1893510464
 20
117.6754170122
 30
0.0
 11
624.1893510464
 21
225.6754170122
 31
0.0
  0
LINE
  5
EF
330
1F
100
AcDbEntity
  8
0
  6
Continuous
 62
     7
370
    25
100
AcDbLine
 10
624.1893510464
 20
9.6754170122
 30
0.0
 11
624.1893510464
 21
117.6754170122
 31
0.0
  0
SPLINE
  5
F0
330
1F
100
AcDbEntity
  8
0
  6
Continuous
 62
     7
370
    25
100
AcDbSpline
210
0.0
220
0.0
230
1.0
 70
     8
 71
     3
 72
    17
 73
    13
 74
     0
 42
0.00000001
 43
0.00000001
 40
0.0
 40
0.0
 40
0.0
 40
0.0
 40
0.1072172389398358
 40
0.2144290482123094
 40
0.3217818773558741
 40
0.4292278105204198
 40
0.5365200764788277
 40
0.6436516898218859
 40
0.7508663797052241
 40
0.858278058673368
 40
0.9656935863987312
 40
1.0
 40
1.0
 40
1.0
 40
1.0
 10
623.1893510464215
 20
9.6754170122378
 30
0.0
 10
623.1121216514601
 20
9.680565086827908
 30
0.0
 10
622.9576667725682
 20
9.690860975300724
 30
0.0
 10
621.7538431923263
 20
9.762460152840644
 30
0.0
 10
619.9796456471361
 20
9.84216321593523
 30
0.0
 10
617.7620791572353
 20
9.899598926045181
 30
0.0
 10
615.3711345997781
 20
9.908164907806771
 30
0.0
 10
613.0774776655393
 20
9.864863298142208
 30
0.0
 10
611.1189982980354
 20
9.78748660515813
 30
0.0
 10
609.7848826581828
 20
9.714048492330873
 30
0.0
 10
609.1507849259655
 20
9.672950776104056
 30
0.0
 10
609.2512298820542
 20
9.679389975487007
 30
0.0
 10
609.2755444389638
 20
9.680948702634181
 30
0.0
  0
LINE
  5
F1
330
1F
100
AcDbEntity
  8
0
  6
Continuous
 62
     7
370
    25
100
AcDbLine
 10
400.1893510464
 20
117.6754170122
 30
0.0
 11
400.1893510464
 21
196.1754170122
 31
0.0
  0
LINE
  5
F2
330
1F
100
AcDbEntity
  8
0
  6
Continuous
 62
     7
370
    25
100
AcDbLine
 10
400.1893510464
 20
39.1754170122
 30
0.0
 11
400.1893510464
 21
117.6754170122
 31
0.0
  0
SPLINE
  5
F3
330
1F
100
AcDbEntity
  8
0
  6
Continuous
 62
     7
370
    25
100
AcDbSpline
210
0.0
220
0.0
230
1.0
 70
     8
 71
     3
 72
    17
 73
    13
 74
     0
 42
0.00000001
 43
0.00000001
 40
0.0
 40
0.0
 40
0.0
 40
0.0
 40
0.1070810050835624
 40
0.2141517881964008
 40
0.3214882395362467
 40
0.4290023925019849
 40
0.5362263451461732
 40
0.6431448753517428
 40
0.7502193188688956
 40
0.8576671301040455
 40
0.9651245320005866
 40
1.0
 40
1.0
 40
1.0
 40
1.0
 10
415.1893510464215
 20
39.1754170122378
 30
0.0
 10
415.1122697918616
 20
39.18248489243393
 30
0.0
 10
414.9581146409315
 20
39.19661997812522
 30
0.0
 10
413.7568072928669
 20
39.29496931575785
 30
0.0
 10
411.9851525689476
 20
39.40469645113827
 30
0.0
 10
409.7684845886645
 20
39.48400247100013
 30
0.0
 10
407.3785445966941
 20
39.49599407983278
 30
0.0
 10
405.0869463245328
 20
39.43660721288308
 30
0.0
 10
403.1286689785764
 20
39.33030468841893
 30
0.0
 10
401.7906585773178
 20
39.22905977165554
 30
0.0
 10
401.1526042200068
 20
39.17218409502485
 30
0.0
 10
401.2518561409249
 20
39.18093963610754
 30
0.0
 10
401.2761755914805
 20
39.18308498449453
 30
0.0
  0
LINE
  5
F4
330
1F
100
AcDbEntity
  8
0
  6
Continuous
 62
     7
370
    25
100
AcDbLine
 10
401.1893510464
 20
30.1754170122
 30
0.0
 11
415.1893510464
 21
30.1754170122
 31
0.0
  0
LINE
  5
F5
330
1F
100
AcDbEntity
  8
0
  6
Continuous
 62
     7
370
    25
100
AcDbLine
 10
609.1893510464
 20
-5.3245829878
 30
0.0
 11
623.1893510464
 21
-5.3245829878
 31
0.0
  0
LINE
  5
F6
330
1F
100
AcDbEntity
  8
0
  6
Continuous
 62
     1
370
    25
100
AcDbLine
 10
509.3451314242
 20
117.6754170122
 30
0.0
 11
509.3451314242
 21
225.6754170122
 31
0.0
  0
LINE
  5
F7
330
1F
100
AcDbEntity
  8
0
  6
Continuous
 62
     1
370
    25
100
AcDbLine
 10
509.3451314242
 20
9.6754170122
 30
0.0
 11
509.3451314242
 21
117.6754170122
 31
0.0
  0
LINE
  5
F8
330
1F
100
AcDbEntity
  8
0
  6
Continuous
 62
     1
370
    25
100
AcDbLine
 10
507.6122714943
 20
117.6754170122
 30
0.0
 11
507.6122714943
 21
224.67401426
 31
0.0
  0
LINE
  5
F9
330
1F
100
AcDbEntity
  8
0
  6
Continuous
 62
     1
370
    25
100
AcDbLine
 10
507.6122714943
 20
10.6768197645
 30
0.0
 11
507.6122714943
 21
117.6754170122
 31
0.0
  0
LINE
  5
FA
330
1F
100
AcDbEntity
  8
0
  6
Continuous
 62
     1
370
    25
100
AcDbLine
 10
491.7664305986
 20
117.6754170122
 30
0.0
 11
491.7664305986
 21
197.1768197645
 31
0.0
  0
LINE
  5
FB
330
1F
100
AcDbEntity
  8
0
  6
Continuous
 62
     1
370
    25
100
AcDbLine
 10
491.7664305986
 20
38.17401426
 30
0.0
 11
491.7664305986
 21
117.6754170122
 31
0.0
  0
LINE
  5
FC
330
1F
100
AcDbEntity
  8
0
  6
Continuous
 62
     1
370
    25
100
AcDbLine
 10
490.0335706686
 20
117.6754170122
 30
0.0
 11
490.0335706686
 21
196.1754170122
 31
0.0
  0
LINE
  5
FD
330
1F
100
AcDbEntity
  8
0
  6
Continuous
 62
     1
370
    25
100
AcDbLine
 10
490.0335706686
 20
39.1754170122
 30
0.0
 11
490.0335706686
 21
117.6754170122
 31
0.0
  0
LINE
  5
FE
330
1F
100
AcDbEntity
  8
0
  6
Continuous
 62
     7
370
    25
100
AcDbLine
 10
28.1701403815
 20
-222.9190483899
 30
0.0
 11
28.1701403815
 21
-337.7632680121
 31
0.0
  0
LINE
  5
FF
330
1F
100
AcDbEntity
  8
0
  6
Continuous
 62
     7
370
    25
100
AcDbLine
 10
244.1701403815
 20
-337.7632680121
 30
0.0
 11
244.1701403815
 21
-222.9190483899
 31
0.0
  0
ARC
  5
100
330
1F
100
AcDbEntity
  8
0
  6
Continuous
 62
     7
370
    25
100
AcDbCircle
 10
30.1701403815
 20
-222.9190483899
 30
0.0
 40
2.000000000000014
100
AcDbArc
 50
119.9536081678
 51
180.0
  0
ARC
  5
101
330
1F
100
AcDbEntity
  8
0
  6
Continuous
 62
     7
370
    25
100
AcDbCircle
 10
242.1701403815
 20
-222.9190483899
 30
0.0
 40
2.000000000000014
100
AcDbArc
 50
0.0
 51
60.0463918322
  0
LINE
  5
102
330
1F
100
AcDbEntity
  8
0
  6
Continuous
 62
     7
370
    25
100
AcDbLine
 10
243.1687376292
 20
-221.18618846
 30
0.0
 11
215.6715431337
 21
-205.3403475643
 31
0.0
  0
LINE
  5
103
330
1F
100
AcDbEntity
  8
0
  6
Continuous
 62
     7
370
    25
100
AcDbLine
 10
56.6687376292
 20
-205.3403475643
 30
0.0
 11
29.1715431337
 21
-221.18618846
 31
0.0
  0
ARC
  5
104
330
1F
100
AcDbEntity
  8
0
  6
Continuous
 62
     7
370
    25
100
AcDbCircle
 10
55.6701403815
 20
-203.6074876343
 30
0.0
 40
2.000000000000011
100
AcDbArc
 50
299.9536081678
 51
0.0
  0
ARC
  5
105
330
1F
100
AcDbEntity
  8
0
  6
Continuous
 62
     7
370
    25
100
AcDbCircle
 10
216.6701403815
 20
-203.6074876343
 30
0.0
 40
2.000000000000014
100
AcDbArc
 50
180.0
 51
240.0463918322
  0
LINE
  5
106
330
1F
100
AcDbEntity
  8
0
  6
Continuous
 62
     7
370
    25
100
AcDbLine
 10
57.6701403815
 20
-113.7632680121
 30
0.0
 11
57.6701403815
 21
-203.6074876343
 31
0.0
  0
LINE
  5
107
330
1F
100
AcDbEntity
  8
0
  6
Continuous
 62
     7
370
    25
100
AcDbLine
 10
214.6701403815
 20
-203.6074876343
 30
0.0
 11
214.6701403815
 21
-113.7632680121
 31
0.0
  0
LINE
  5
108
330
1F
100
AcDbEntity
  8
0
  6
Continuous
 62
     7
370
    25
100
AcDbLine
 10
28.1701403815
 20
-337.7632680121
 30
0.0
 11
244.1701403815
 21
-337.7632680121
 31
0.0
  0
LINE
  5
109
330
1F
100
AcDbEntity
  8
0
  6
Continuous
 62
     7
370
    25
100
AcDbLine
 10
57.6701403815
 20
-113.7632680121
 30
0.0
 11
214.6701403815
 21
-113.7632680121
 31
0.0
  0
LINE
  5
10A
330
1F
100
AcDbEntity
  8
0
  6
Continuous
 62
     1
370
    25
100
AcDbLine
 10
28.1701403815
 20
-222.9190483899
 30
0.0
 11
244.1701403815
 21
-222.9190483899
 31
0.0
  0
LINE
  5
10B
330
1F
100
AcDbEntity
  8
0
  6
Continuous
 62
     1
370
    25
100
AcDbLine
 10
29.1715431337
 20
-221.18618846
 30
0.0
 11
243.1687376292
 21
-221.18618846
 31
0.0
  0
LINE
  5
10C
330
1F
100
AcDbEntity
  8
0
  6
Continuous
 62
     1
370
    25
100
AcDbLine
 10
56.6687376292
 20
-205.3403475643
 30
0.0
 11
215.6715431337
 21
-205.3403475643
 31
0.0
  0
LINE
  5
10D
330
1F
100
AcDbEntity
  8
0
  6
Continuous
 62
     1
370
    25
100
AcDbLine
 10
57.6701403815
 20
-203.6074876343
 30
0.0
 11
214.6701403815
 21
-203.6074876343
 31
0.0
  0
LINE
  5
10E
330
1F
100
AcDbEntity
  8
0
  6
Continuous
 62
     7
370
    25
100
AcDbLine
 10
555.0476340198
 20
-118.1091816889
 30
0.0
 11
473.8405075449
 21
-71.2293054411
 31
0.0
  0
LINE
  5
10F
330
1F
100
AcDbEntity
  8
0
  6
Continuous
 62
     7
370
    25
100
AcDbLine
 10
365.8492844202
 20
-258.2958597153
 30
0.0
 11
447.0564108951
 21
-305.1757359631
 31
0.0
  0
LINE
  5
110
330
1F
100
AcDbEntity
  8
0
  6
Continuous
 62
     7
370
    25
100
AcDbLine
 10
418.501750232
 20
-256.1223462348
 30
0.0
 11
418.501750232
 21
-268.4627348875
 31
0.0
  0
LINE
  5
111
330
1F
100
AcDbEntity
  8
0
  6
Continuous
 62
     7
370
    25
100
AcDbLine
 10
432.501750232
 20
-268.4627348875
 30
0.0
 11
432.501750232
 21
-256.1215934322
 31
0.0
  0
SPLINE
  5
112
330
1F
100
AcDbEntity
  8
0
  6
Continuous
 62
     7
370
    25
100
AcDbSpline
210
0.0
220
0.0
230
1.0
 70
     8
 71
     3
 72
    32
 73
    28
 74
     0
 42
0.00000001
 43
0.00000001
 40
0.0
 40
0.0
 40
0.0
 40
0.0
 40
0.0004114325205248
 40
0.0421642037887216
 40
0.0839248153210166
 40
0.1256941234778026
 40
0.1674728891159587
 40
0.2092617343868273
 40
0.2510610848076808
 40
0.2928710928631892
 40
0.3346915389537827
 40
0.3765217053889572
 40
0.4183602196730564
 40
0.460204865094673
 40
0.5020520549400287
 40
0.5438956642334728
 40
0.5857289965636873
 40
0.6275435415762225
 40
0.669328900663167
 40
0.7110729151372602
 40
0.7527620989842697
 40
0.7943824720430807
 40
0.8359208450551083
 40
0.8773665147701805
 40
0.918713191368197
 40
0.9599608353473067
 40
1.0
 40
1.0
 40
1.0
 40
1.0
 10
570.9626016796929
 20
-209.383767318421
 30
0.0
 10
570.9678143694177
 20
-209.3685246999854
 30
0.0
 10
571.5020184026063
 20
-207.8064389679874
 30
0.0
 10
572.4250791187199
 20
-204.7001391570962
 30
0.0
 10
573.715304123778
 20
-200.0777141748591
 30
0.0
 10
574.8266778155106
 20
-195.4802234881764
 30
0.0
 10
575.7802811796212
 20
-190.9173507942365
 30
0.0
 10
576.5674613832296
 20
-186.3990833115004
 30
0.0
 10
577.1879507713271
 20
-181.9352150636388
 30
0.0
 10
577.6396522448745
 20
-177.5354608288649
 30
0.0
 10
577.9213800254871
 20
-173.2094091183255
 30
0.0
 10
578.0321286472437
 20
-168.9665213813125
 30
0.0
 10
577.971274439123
 20
-164.816122125702
 30
0.0
 10
577.7385308499048
 20
-160.7674045674875
 30
0.0
 10
577.3339804396977
 20
-156.8294647528874
 30
0.0
 10
576.7580953051337
 20
-153.0112614325443
 30
0.0
 10
576.0117637844069
 20
-149.3216012517204
 30
0.0
 10
575.096312827375
 20
-145.7690941760861
 30
0.0
 10
574.0135472361937
 20
-142.3621676375124
 30
0.0
 10
572.7657977521923
 20
-139.1090174818627
 30
0.0
 10
571.3559278921463
 20
-136.0175952996288
 30
0.0
 10
569.7874662064229
 20
-133.0953672977572
 30
0.0
 10
568.064197218734
 20
-130.3498287097283
 30
0.0
 10
566.1916399152356
 20
-127.7861347677863
 30
0.0
 10
564.1713333621294
 20
-125.4154403193864
 30
0.0
 10
562.0410874877333
 20
-123.2432632773391
 30
0.0
 10
560.5142606998968
 20
-121.966401605935
 30
0.0
 10
559.7621968634232
 20
-121.3374622299086
 30
0.0
  0
SPLINE
  5
113
330
1F
100
AcDbEntity
  8
0
  6
Continuous
 62
     7
370
    25
100
AcDbSpline
210
0.0
220
0.0
230
1.0
 70
     8
 71
     3
 72
    30
 73
    26
 74
     0
 42
0.00000001
 43
0.00000001
 40
0.0
 40
0.0
 40
0.0
 40
0.0
 40
0.0391580630335538
 40
0.0840012460615025
 40
0.1289186626233466
 40
0.173928778974458
 40
0.219041611416356
 40
0.2642590085389951
 40
0.3095759192976508
 40
0.3549822443982322
 40
0.4004648448890517
 40
0.4460093642694952
 40
0.491601657910458
 40
0.5372287616562993
 40
0.5828794338294149
 40
0.6285443599811399
 40
0.6742161246618562
 40
0.7198880752247508
 40
0.7655558906573998
 40
0.8112169935215432
 40
0.856869735129501
 40
0.9025131928860946
 40
0.9481470009523117
 40
0.9937712130521479
 40
0.9999999999999999
 40
0.9999999999999999
 40
0.9999999999999999
 40
0.9999999999999999
 10
452.2290313595913
 20
-307.6409763545888
 30
0.0
 10
453.0509760364035
 20
-307.9477342638067
 30
0.0
 10
454.8141985172164
 20
-308.6057863894045
 30
0.0
 10
457.6427002134912
 20
-309.3532451521908
 30
0.0
 10
460.6806566048315
 20
-309.9378079406671
 30
0.0
 10
463.8111767516398
 20
-310.2991241888396
 30
0.0
 10
467.0243793723345
 20
-310.442988472979
 30
0.0
 10
470.3143093296939
 20
-310.3666943612324
 30
0.0
 10
473.6734029856088
 20
-310.0704471185638
 30
0.0
 10
477.0940385140398
 20
-309.55440621061
 30
0.0
 10
480.5682240735889
 20
-308.8195476789992
 30
0.0
 10
484.0878030747147
 20
-307.8674532334455
 30
0.0
 10
487.6445145844829
 20
-306.7003490315192
 30
0.0
 10
491.2300727003586
 20
-305.3210518835315
 30
0.0
 10
494.8362148475084
 20
-303.7329271398367
 30
0.0
 10
498.4547353536174
 20
-301.9398453799206
 30
0.0
 10
502.0774727173736
 20
-299.946145677602
 30
0.0
 10
505.6963562488558
 20
-297.7566379826064
 30
0.0
 10
509.303361738571
 20
-295.3764144942222
 30
0.0
 10
512.8907649855104
 20
-292.8113825499494
 30
0.0
 10
516.4502656599816
 20
-290.0661118240622
 30
0.0
 10
519.9761596329571
 20
-287.1518414072311
 30
0.0
 10
523.4534653940113
 20
-284.0565832198092
 30
0.0
 10
525.9098395623766
 20
-281.7774253976346
 30
0.0
 10
527.1866503436421
 20
-280.4883058949255
 30
0.0
 10
527.3400258952067
 20
-280.3334517711493
 30
0.0
  0
LINE
  5
114
330
1F
100
AcDbEntity
  8
0
  6
Continuous
 62
     7
370
    25
100
AcDbLine
 10
617.4836252243
 20
-188.2154554055
 30
0.0
 11
577.9508590139
 21
-165.3936752474
 31
0.0
  0
LINE
  5
115
330
1F
100
AcDbEntity
  8
0
  6
Continuous
 62
     7
370
    25
100
AcDbLine
 10
499.4499239284
 20
-301.3591240278
 30
0.0
 11
538.9900047123
 21
-324.1851267992
 31
0.0
  0
LINE
  5
116
330
1F
100
AcDbEntity
  8
0
  6
Continuous
 62
     7
370
    25
100
AcDbLine
 10
565.5799607188
 20
-316.906086613
 30
0.0
 11
565.5799607188
 21
-324.3819796951
 31
0.0
  0
LINE
  5
117
330
1F
100
AcDbEntity
  8
0
  6
Continuous
 62
     7
370
    25
100
AcDbLine
 10
579.5799607188
 20
-324.3819796951
 30
0.0
 11
579.5799607188
 21
-316.9050351485
 31
0.0
  0
ARC
  5
118
330
1F
100
AcDbEntity
  8
0
  6
Continuous
 62
     7
370
    25
100
AcDbCircle
 10
536.8751695038
 20
-149.5606861155
 30
0.0
 40
36.32403608191471
100
AcDbArc
 50
51.2777188431
 51
59.9809712912
  0
ARC
  5
119
330
1F
100
AcDbEntity
  8
0
  6
Continuous
 62
     7
370
    25
100
AcDbCircle
 10
465.1687365222
 20
-273.7862184692
 30
0.0
 40
36.24028349949494
100
AcDbArc
 50
240.0142679167
 51
248.7616581571
  0
LWPOLYLINE
  5
11A
330
1F
100
AcDbEntity
  8
0
  6
Continuous
 62
     7
370
    25
100
AcDbPolyline
 90
      127
 70
   128
 43
0.0
 10
343.4773636144
 20
-208.8486206166
 10
343.5722944734
 20
-204.398088604
 10
343.8568510375
 20
-199.8490164783
 10
344.3303258542
 20
-195.2127139496
 10
344.9915417904
 20
-190.5007075966
 10
345.8388549592
 20
-185.7247122094
 10
346.8701588065
 20
-180.8966016651
 10
348.0828893485
 20
-176.0283794073
 10
349.474031546
 20
-171.1321486034
 10
351.0401268003
 20
-166.2200820549
 10
352.7772815518
 20
-161.3043919329
 10
354.68117696
 20
-156.3972994179
 10
356.7470796411
 20
-151.5110043147
 10
358.9698534355
 20
-146.6576547232
 10
361.3439721772
 20
-141.8493168349
 10
363.863533433
 20
-137.0979449355
 10
366.5222731767
 20
-132.4153516842
 10
369.3135813623
 20
-127.8131787455
 10
372.2305183579
 20
-123.3028678467
 10
375.2658321984
 20
-118.8956323311
 10
378.4119766155
 20
-114.6024292808
 10
381.6611297984
 20
-110.4339322749
 10
385.0052138404
 20
-106.4005048538
 10
388.4359148216
 20
-102.5121747535
 10
391.9447034788
 20
-98.7786089755
 10
395.5228564106
 20
-95.2090897524
 10
399.161477765
 20
-91.8124914714
 10
402.851521356
 20
-88.5972586111
 10
406.5838131539
 20
-85.571384747
 10
410.3490740931
 20
-82.7423926782
 10
414.1379431417
 20
-80.1173157248
 10
417.9410005743
 20
-77.7026802416
 10
421.7487913908
 20
-75.5044893931
 10
425.5518488234
 20
-73.5282082278
 10
429.340717872
 20
-71.7787500923
 10
433.1059788112
 20
-70.2604644151
 10
436.838270609
 20
-68.9771258936
 10
440.5283142
 20
-67.9319251096
 10
444.1669355544
 20
-67.1274605969
 10
447.7450884862
 20
-66.565732381
 10
451.2538771435
 20
-66.2481370069
 10
454.6845781246
 20
-66.1754640666
 10
458.0286621666
 20
-66.3478942365
 10
461.2778153495
 20
-66.764998828
 10
464.4239597666
 20
-67.4257408535
 10
467.4592736072
 20
-68.3284776041
 10
470.3762106027
 20
-69.470964734
 10
473.1675187883
 20
-70.8503618402
 10
475.826258532
 20
-72.4632395242
 10
478.3458197879
 20
-74.3055879179
 10
480.7199385296
 20
-76.372826653
 10
482.9427123239
 20
-78.6598162481
 10
485.008615005
 20
-81.1608708869
 10
486.9125104133
 20
-83.8697725534
 10
488.6496651648
 20
-86.7797864913
 10
490.215760419
 20
-89.8836779474
 10
491.6069026165
 20
-93.1737301585
 10
492.8196331585
 20
-96.6417635364
 10
493.8509370059
 20
-100.2791560037
 10
494.6982501747
 20
-104.0768644296
 10
495.3594661109
 20
-108.0254471126
 10
495.8329409275
 20
-112.115087254
 10
496.1174974916
 20
-116.335617364
 10
496.2124283507
 20
-120.6765445398
 10
496.1174974916
 20
-125.1270765524
 10
495.8329409275
 20
-129.6761486781
 10
495.3594661109
 20
-134.3124512068
 10
494.6982501747
 20
-139.0244575598
 10
493.8509370059
 20
-143.800452947
 10
492.8196331585
 20
-148.6285634913
 10
491.6069026165
 20
-153.4967857492
 10
490.215760419
 20
-158.393016553
 10
488.6496651648
 20
-163.3050831016
 10
486.9125104133
 20
-168.2207732235
 10
485.008615005
 20
-173.1278657386
 10
482.9427123239
 20
-178.0141608417
 10
480.7199385296
 20
-182.8675104333
 10
478.3458197878
 20
-187.6758483216
 10
475.826258532
 20
-192.427220221
 10
473.1675187883
 20
-197.1098134723
 10
470.3762106027
 20
-201.7119864109
 10
467.4592736072
 20
-206.2222973097
 10
464.4239597666
 20
-210.6295328253
 10
461.2778153495
 20
-214.9227358756
 10
458.0286621666
 20
-219.0912328815
 10
454.6845781246
 20
-223.1246603027
 10
451.2538771435
 20
-227.0129904029
 10
447.7450884862
 20
-230.746556181
 10
444.1669355544
 20
-234.3160754041
 10
440.5283142
 20
-237.712673685
 10
436.838270609
 20
-240.9279065453
 10
433.1059788112
 20
-243.9537804095
 10
429.340717872
 20
-246.7827724782
 10
425.5518488234
 20
-249.4078494317
 10
421.7487913908
 20
-251.8224849148
 10
417.9410005743
 20
-254.0206757634
 10
414.1379431417
 20
-255.9969569286
 10
410.3490740931
 20
-257.7464150641
 10
406.5838131539
 20
-259.2647007413
 10
402.851521356
 20
-260.5480392628
 10
399.161477765
 20
-261.5932400468
 10
395.5228564106
 20
-262.3977045595
 10
391.9447034788
 20
-262.9594327754
 10
388.4359148216
 20
-263.2770281495
 10
385.0052138404
 20
-263.3497010899
 10
381.6611297984
 20
-263.17727092
 10
378.4119766155
 20
-262.7601663284
 10
375.2658321984
 20
-262.099424303
 10
372.2305183579
 20
-261.1966875524
 10
369.3135813623
 20
-260.0542004225
 10
366.5222731767
 20
-258.6748033162
 10
363.863533433
 20
-257.0619256322
 10
361.3439721772
 20
-255.2195772385
 10
358.9698534355
 20
-253.1523385035
 10
356.7470796411
 20
-250.8653489083
 10
354.68117696
 20
-248.3642942695
 10
352.7772815518
 20
-245.655392603
 10
351.0401268003
 20
-242.7453786651
 10
349.474031546
 20
-239.641487209
 10
348.0828893485
 20
-236.3514349979
 10
346.8701588065
 20
-232.8834016201
 10
345.8388549592
 20
-229.2460091528
 10
344.9915417904
 20
-225.4483007268
 10
344.3303258542
 20
-221.4997180439
 10
343.8568510375
 20
-217.4100779025
 10
343.5722944734
 20
-213.1895477924
 10
343.4773636144
 20
-208.8486206166
  0
SPLINE
  5
11B
330
1F
100
AcDbEntity
  8
0
  6
Continuous
 62
     7
370
    25
100
AcDbSpline
210
0.0
220
0.0
230
1.0
 70
     8
 71
     3
 72
    10
 73
     6
 74
     0
 42
0.00000001
 43
0.00000001
 40
0.0
 40
0.0
 40
0.0
 40
0.0
 40
0.4290675705926241
 40
0.8581134124575994
 40
1.0
 40
1.0
 40
1.0
 40
1.0
 10
420.552002763709
 20
-253.3571943177856
 30
0.0
 10
420.0610805368003
 20
-253.7051632856243
 30
0.0
 10
419.0792609441377
 20
-254.4010835995484
 30
0.0
 10
418.4695467253288
 20
-255.4042426692633
 30
0.0
 10
418.5656333128629
 20
-255.9770922801991
 30
0.0
 10
418.5895124924498
 20
-256.1194553205243
 30
0.0
  0
SPLINE
  5
11C
330
1F
100
AcDbEntity
  8
0
  6
Continuous
 62
     7
370
    25
100
AcDbSpline
210
0.0
220
0.0
230
1.0
 70
     8
 71
     3
 72
    15
 73
    11
 74
     0
 42
0.00000001
 43
0.00000001
 40
0.0
 40
0.0
 40
0.0
 40
0.0
 40
0.049944892982888
 40
0.1932036433524296
 40
0.3363488367789794
 40
0.4792316838749958
 40
0.622113246295596
 40
0.7652560558732855
 40
0.9085154652544166
 40
1.0
 40
1.0
 40
1.0
 40
1.0
 10
432.4116846680582
 20
-256.1189592378034
 30
0.0
 10
432.43597847655
 20
-255.9539722436582
 30
0.0
 10
432.5299550982065
 20
-255.3157470624465
 30
0.0
 10
431.8755355186726
 20
-254.231091309684
 30
0.0
 10
430.5182353246537
 20
-253.0888780250549
 30
0.0
 10
428.5455401044777
 20
-252.3209740400322
 30
0.0
 10
426.243422421374
 20
-252.0048051843428
 30
0.0
 10
423.8612982728532
 20
-252.1619898327884
 30
0.0
 10
421.8974850418294
 20
-252.6678229946942
 30
0.0
 10
420.929317523744
 20
-253.1638733208635
 30
0.0
 10
420.552002763709
 20
-253.3571943177856
 30
0.0
  0
LWPOLYLINE
  5
11D
330
1F
100
AcDbEntity
  8
0
  6
Continuous
 62
     7
370
    25
100
AcDbPolyline
 90
      116
 70
   128
 43
0.0
 10
356.2052856757
 20
-201.5009476102
 10
356.3002484806
 20
-197.432967988
 10
356.5848534888
 20
-193.2674870952
 10
357.0582513272
 20
-189.0169363639
 10
357.7190291906
 20
-184.6940011081
 10
358.565215058
 20
-180.3115826656
 10
359.5942835784
 20
-175.8827598956
 10
360.8031636067
 20
-171.4207501459
 10
362.1882473699
 20
-166.9388698073
 10
363.7454012336
 20
-162.4504945722
 10
365.4699780386
 20
-157.9690195165
 10
367.35683097
 20
-153.507819123
 10
369.400328917
 20
-149.0802073672
 10
371.5943732786
 20
-144.6993979827
 10
373.932416164
 20
-140.3784650266
 10
376.4074799344
 20
-136.1303038611
 10
379.0121780267
 20
-131.9675926687
 10
381.738736998
 20
-127.9027546158
 10
384.5790197248
 20
-123.9479207767
 10
387.524549687
 20
-120.11489393
 10
390.5665362655
 20
-116.4151133342
 10
393.6959009769
 20
-112.859620589
 10
396.9033045668
 20
-109.4590266819
 10
400.1791748823
 20
-106.2234803218
 10
403.5137354389
 20
-103.1626376508
 10
406.8970345973
 20
-100.2856334263
 10
410.318975263
 20
-97.6010537597
 10
413.7693450201
 20
-95.1169104919
 10
417.2378466092
 20
-92.8406172827
 10
420.7141286583
 20
-90.7789674858
 10
424.1878165754
 20
-88.9381138744
 10
427.6485435106
 20
-87.3235502793
 10
431.0859812945
 20
-85.9400951927
 10
434.4898712616
 20
-84.7918773885
 10
437.8500548666
 20
-83.8823235998
 10
441.1565040008
 20
-83.2141482925
 10
444.3993509204
 20
-82.7893455646
 10
447.5689176958
 20
-82.6091831941
 10
450.6557450939
 20
-82.6741988566
 10
453.6506208086
 20
-82.9841985196
 10
456.5446069535
 20
-83.5382570223
 10
459.3290667367
 20
-84.3347208365
 10
461.9956902357
 20
-85.371213001
 10
464.5365191979
 20
-86.6446402159
 10
466.9439707911
 20
-88.1512020738
 10
469.2108602335
 20
-89.886402402
 10
471.3304222361
 20
-91.8450626808
 10
473.2963311928
 20
-94.0213374981
 10
475.1027200585
 20
-96.4087319944
 10
476.744197859
 20
-99.0001212463
 10
478.2158657793
 20
-101.7877715297
 10
479.5133317839
 20
-104.7633634005
 10
480.6327237244
 20
-107.9180165231
 10
481.5707008952
 20
-111.2423161727
 10
482.3244640037
 20
-114.7263413325
 10
482.8917635247
 20
-118.3596943022
 10
483.2709064133
 20
-122.1315317284
 10
483.4607611582
 20
-126.0305969658
 10
483.4607611582
 20
-130.0452536713
 10
483.2709064133
 20
-134.1635205314
 10
482.8917635247
 20
-138.3731070191
 10
482.3244640037
 20
-142.6614500738
 10
481.5707008952
 20
-147.0157515944
 10
480.6327237244
 20
-151.4230166338
 10
479.5133317839
 20
-155.8700921809
 10
478.2158657793
 20
-160.3437064143
 10
476.744197859
 20
-164.8305083111
 10
475.1027200585
 20
-169.3171074907
 10
473.2963311928
 20
-173.7901141779
 10
471.3304222361
 20
-178.2361791627
 10
469.2108602335
 20
-182.6420336397
 10
466.9439707911
 20
-186.9945288075
 10
464.5365191979
 20
-191.2806751098
 10
461.9956902357
 20
-195.4876810015
 10
459.3290667367
 20
-199.6029911234
 10
456.5446069535
 20
-203.6143237728
 10
453.6506208086
 20
-207.5097075564
 10
450.6557450939
 20
-211.277517118
 10
447.5689176958
 20
-214.9065078329
 10
444.3993509204
 20
-218.3858493666
 10
441.1565040008
 20
-221.7051579965
 10
437.8500548666
 20
-224.8545276008
 10
434.4898712616
 20
-227.8245592231
 10
431.0859812945
 20
-230.6063891215
 10
427.6485435106
 20
-233.1917152223
 10
424.1878165754
 20
-235.5728218963
 10
420.7141286583
 20
-237.7426029853
 10
417.2378466092
 20
-239.6945830097
 10
413.7693450201
 20
-241.4229364941
 10
410.318975263
 20
-242.9225053522
 10
406.8970345973
 20
-244.1888142811
 10
403.5137354389
 20
-245.2180841175
 10
400.1791748823
 20
-246.0072431155
 10
396.9033045668
 20
-246.5539361145
 10
393.6959009769
 20
-246.8565315677
 10
390.5665362655
 20
-246.9141264115
 10
387.524549687
 20
-246.72654876
 10
384.5790197248
 20
-246.2943584188
 10
381.738736998
 20
-245.6188452137
 10
379.0121780267
 20
-244.7020251416
 10
376.4074799344
 20
-243.546634354
 10
373.932416164
 20
-242.156120991
 10
371.5943732786
 20
-240.5346348911
 10
369.400328917
 20
-238.687015206
 10
367.35683097
 20
-236.6187759592
 10
365.4699780386
 20
-234.3360895893
 10
363.7454012336
 20
-231.8457685298
 10
362.1882473699
 20
-229.1552448773
 10
360.8031636067
 20
-226.2725482121
 10
359.5942835784
 20
-223.2062816339
 10
358.565215058
 20
-219.9655960873
 10
357.7190291906
 20
-216.5601630517
 10
357.0582513272
 20
-213.0001456777
 10
356.5848534888
 20
-209.2961684565
 10
356.3002484806
 20
-205.4592855117
 10
356.2052856757
 20
-201.5009476102
  0
LWPOLYLINE
  5
11E
330
1F
100
AcDbEntity
  8
0
  6
Continuous
 62
     7
370
    25
100
AcDbPolyline
 90
       33
 70
   128
 43
0.0
 10
420.5520027637
 20
-265.6053064961
 10
421.6127586009
 20
-265.1027545564
 10
422.8229662055
 20
-264.7293247765
 10
424.1361179779
 20
-264.4993678535
 10
425.501750232
 20
-264.4217209029
 10
426.8673824861
 20
-264.4993678535
 10
428.1805342586
 20
-264.7293247765
 10
429.3907418632
 20
-265.1027545564
 10
430.4514977003
 20
-265.6053064961
 10
431.3220375181
 20
-266.2176678064
 10
431.9689069596
 20
-266.9163057856
 10
432.3672471948
 20
-267.6743721679
 10
432.501750232
 20
-268.4627348875
 10
432.3672471948
 20
-269.251097607
 10
431.9689069596
 20
-270.0091639893
 10
431.3220375181
 20
-270.7078019685
 10
430.4514977003
 20
-271.3201632788
 10
429.3907418632
 20
-271.8227152185
 10
428.1805342586
 20
-272.1961449984
 10
426.8673824861
 20
-272.4261019214
 10
425.501750232
 20
-272.5037488721
 10
424.1361179779
 20
-272.4261019214
 10
422.8229662055
 20
-272.1961449984
 10
421.6127586009
 20
-271.8227152185
 10
420.5520027637
 20
-271.3201632788
 10
419.6814629459
 20
-270.7078019685
 10
419.0345935044
 20
-270.0091639893
 10
418.6362532692
 20
-269.251097607
 10
418.501750232
 20
-268.4627348875
 10
418.6362532692
 20
-267.6743721679
 10
419.0345935044
 20
-266.9163057856
 10
419.6814629459
 20
-266.2176678064
 10
420.5520027637
 20
-265.6053064961
  0
LWPOLYLINE
  5
11F
330
1F
100
AcDbEntity
  8
0
  6
Continuous
 62
     7
370
    25
100
AcDbPolyline
 90
       28
 70
   128
 43
0.0
 10
421.9662163261
 20
-266.4217146079
 10
422.8768673303
 20
-266.0060389047
 10
423.9290264513
 20
-265.7228043178
 10
425.0659715183
 20
-265.5872800972
 10
426.2264095286
 20
-265.6067723886
 10
427.3477809686
 20
-265.7802303575
 10
428.3696324138
 20
-266.09830284
 10
429.2368755882
 20
-266.5438424661
 10
429.9027571879
 20
-267.0928300794
 10
430.3313793635
 20
-267.7156696155
 10
430.4996349824
 20
-268.3787836338
 10
430.3984533408
 20
-269.0464234858
 10
430.0332891672
 20
-269.6825965345
 10
429.4238285566
 20
-270.253006526
 10
428.6029276884
 20
-270.7269025101
 10
427.6148415407
 20
-271.0787366316
 10
426.5128380937
 20
-271.2895414219
 10
425.3563266383
 20
-271.3479523403
 10
424.2076550065
 20
-271.250820439
 10
423.1287483833
 20
-271.0033821239
 10
422.1777709039
 20
-270.6189768587
 10
421.4059900106
 20
-270.1183280307
 10
420.8550126109
 20
-269.5284257478
 10
420.5545420391
 20
-268.8810717948
 10
420.5207767416
 20
-268.2111651908
 10
420.7555370141
 20
-267.5548207743
 10
421.2461668698
 20
-266.9474222427
 10
421.9662163261
 20
-266.4217146079
  0
ARC
  5
120
330
1F
100
AcDbEntity
  8
0
  6
Continuous
 62
     7
370
    25
100
AcDbCircle
 10
400.8167297697
 20
-153.661934592
 30
0.0
 40
179.0236124382456
100
AcDbArc
 50
314.9383139292
 51
341.8417832769
  0
LWPOLYLINE
  5
121
330
1F
100
AcDbEntity
  8
0
  6
Continuous
 62
     7
370
    25
100
AcDbPolyline
 90
       42
 70
   128
 43
0.0
 10
617.4836252243
 20
-188.2154554055
 10
618.6117854697
 20
-188.9052888815
 10
620.7583197713
 20
-190.4514570206
 10
622.7609747604
 20
-192.2200984019
 10
624.6129740866
 20
-194.2052285029
 10
626.3080511704
 20
-196.4001302716
 10
627.8404704075
 20
-198.7973768553
 10
629.2050465762
 20
-201.3888567303
 10
630.3971623828
 20
-204.1658011491
 10
631.4127840847
 20
-207.1188138108
 10
632.2484751396
 20
-210.2379026552
 10
632.9014078334
 20
-213.5125136732
 10
633.3693728487
 20
-216.9315666174
 10
633.6507867399
 20
-220.483492495
 10
633.7446972915
 20
-224.1562727133
 10
633.6507867399
 20
-227.9374797465
 10
633.3693728487
 20
-231.814319187
 10
632.9014078334
 20
-235.7736730372
 10
632.2484751396
 20
-239.802144097
 10
631.4127840847
 20
-243.8861012956
 10
630.3971623828
 20
-248.0117258146
 10
629.2050465762
 20
-252.1650578464
 10
627.8404704075
 20
-256.3320438303
 10
626.3080511704
 20
-260.4985840046
 10
624.6129740866
 20
-264.6505801164
 10
622.7609747604
 20
-268.773983125
 10
620.7583197713
 20
-272.8548407399
 10
618.6117854697
 20
-276.8793446307
 10
616.3286350484
 20
-280.8338771502
 10
613.9165939656
 20
-284.705057412
 10
611.3838238048
 20
-288.4797865677
 10
608.7388946586
 20
-292.1452921285
 10
605.9907561299
 20
-295.6891711839
 10
603.1487070496
 20
-299.0994323691
 10
600.2223640122
 20
-302.3645364397
 10
597.2216288362
 20
-305.4734353169
 10
594.1566550595
 20
-308.4156094712
 10
591.0378135833
 20
-311.1811035165
 10
587.8756575799
 20
-313.7605598964
 10
584.6808867841
 20
-316.1452505469
 10
581.4643112892
 20
-318.3271064298
 10
579.5799607188
 20
-319.5045952931
  0
LWPOLYLINE
  5
122
330
1F
100
AcDbEntity
  8
0
  6
Continuous
 62
     7
370
    25
100
AcDbPolyline
 90
       12
 70
   128
 43
0.0
 10
566.0133185292
 20
-325.7817340037
 10
565.4358163533
 20
-325.9608219223
 10
562.3169748771
 20
-326.7962655973
 10
559.2520011004
 20
-327.3928348412
 10
556.2512659244
 20
-327.7485110526
 10
553.324922887
 20
-327.8620907358
 10
550.4828738067
 20
-327.733189573
 10
547.734735278
 20
-327.362243725
 10
545.0898061318
 20
-326.7505083551
 10
542.5570359711
 20
-325.9000533821
 10
540.1449948882
 20
-324.8137564765
 10
538.9900047123
 20
-324.1851267992
  0
SPLINE
  5
123
330
1F
100
AcDbEntity
  8
0
  6
Continuous
 62
     7
370
    25
100
AcDbSpline
210
0.0
220
0.0
230
1.0
 70
     8
 71
     3
 72
    10
 73
     6
 74
     0
 42
0.00000001
 43
0.00000001
 40
0.0
 40
0.0
 40
0.0
 40
0.0
 40
0.4285178879413897
 40
0.8569948694932491
 40
1.0
 40
1.0
 40
1.0
 40
1.0
 10
567.6302132505112
 20
-314.1756839967176
 30
0.0
 10
567.1396974998944
 20
-314.5217156897233
 30
0.0
 10
566.1587128233764
 20
-315.2137460434912
 30
0.0
 10
565.5487160428347
 20
-316.1992373776767
 30
0.0
 10
565.6441363907853
 20
-316.7623275759646
 30
0.0
 10
565.6680139523463
 20
-316.903232751462
 30
0.0
  0
SPLINE
  5
124
330
1F
100
AcDbEntity
  8
0
  6
Continuous
 62
     7
370
    25
100
AcDbSpline
210
0.0
220
0.0
230
1.0
 70
     8
 71
     3
 72
    15
 73
    11
 74
     0
 42
0.00000001
 43
0.00000001
 40
0.0
 40
0.0
 40
0.0
 40
0.0
 40
0.0486081881864592
 40
0.1919547528892163
 40
0.3350923387970076
 40
0.4777311174357903
 40
0.6203611275891873
 40
0.7634841529868314
 40
0.90683460273631
 40
1.0
 40
1.0
 40
1.0
 40
1.0
 10
579.491193272905
 20
-316.9022845517838
 30
0.0
 10
579.5154259923072
 20
-316.7391869917086
 30
0.0
 10
579.6111215086029
 20
-316.0951113120931
 30
0.0
 10
578.9629999417629
 20
-314.996678066209
 30
0.0
 10
577.612334663106
 20
-313.8438406945415
 30
0.0
 10
575.645797023577
 20
-313.0811594754731
 30
0.0
 10
573.3493813070738
 20
-312.781498263409
 30
0.0
 10
570.9684477708809
 20
-312.9574583224455
 30
0.0
 10
568.9918223017792
 20
-313.4771629411968
 30
0.0
 10
568.0149935508206
 20
-313.9782872907648
 30
0.0
 10
567.6302132505112
 20
-314.1756839967176
 30
0.0
  0
LWPOLYLINE
  5
125
330
1F
100
AcDbEntity
  8
0
  6
Continuous
 62
     7
370
    25
100
AcDbPolyline
 90
       33
 70
   128
 43
0.0
 10
567.6302132505
 20
-321.5245513037
 10
568.6909690877
 20
-321.021999364
 10
569.9011766923
 20
-320.6485695841
 10
571.2143284647
 20
-320.4186126611
 10
572.5799607188
 20
-320.3409657105
 10
573.9455929729
 20
-320.4186126611
 10
575.2587447454
 20
-320.6485695841
 10
576.46895235
 20
-321.021999364
 10
577.5297081871
 20
-321.5245513037
 10
578.4002480049
 20
-322.136912614
 10
579.0471174464
 20
-322.8355505932
 10
579.4454576816
 20
-323.5936169755
 10
579.5799607188
 20
-324.3819796951
 10
579.4454576816
 20
-325.1703424146
 10
579.0471174464
 20
-325.9284087969
 10
578.4002480049
 20
-326.6270467761
 10
577.5297081871
 20
-327.2394080864
 10
576.46895235
 20
-327.7419600262
 10
575.2587447454
 20
-328.115389806
 10
573.9455929729
 20
-328.3453467291
 10
572.5799607188
 20
-328.4229936797
 10
571.2143284647
 20
-328.3453467291
 10
569.9011766923
 20
-328.115389806
 10
568.6909690877
 20
-327.7419600262
 10
567.6302132505
 20
-327.2394080864
 10
566.7596734327
 20
-326.6270467761
 10
566.1128039912
 20
-325.9284087969
 10
565.714463756
 20
-325.1703424146
 10
565.5799607188
 20
-324.3819796951
 10
565.714463756
 20
-323.5936169755
 10
566.1128039912
 20
-322.8355505932
 10
566.7596734327
 20
-322.136912614
 10
567.6302132505
 20
-321.5245513037
  0
LWPOLYLINE
  5
126
330
1F
100
AcDbEntity
  8
0
  6
Continuous
 62
     7
370
    25
100
AcDbPolyline
 90
       28
 70
   128
 43
0.0
 10
569.0444268129
 20
-322.3409594155
 10
569.9550778171
 20
-321.9252837123
 10
571.0072369381
 20
-321.6420491255
 10
572.1441820051
 20
-321.5065249048
 10
573.3046200154
 20
-321.5260171962
 10
574.4259914554
 20
-321.6994751651
 10
575.4478429006
 20
-322.0175476476
 10
576.315086075
 20
-322.4630872737
 10
576.9809676747
 20
-323.012074887
 10
577.4095898503
 20
-323.6349144231
 10
577.5778454692
 20
-324.2980284414
 10
577.4766638276
 20
-324.9656682934
 10
577.111499654
 20
-325.6018413421
 10
576.5020390434
 20
-326.1722513336
 10
575.6811381752
 20
-326.6461473177
 10
574.6930520275
 20
-326.9979814392
 10
573.5910485805
 20
-327.2087862295
 10
572.4345371251
 20
-327.2671971479
 10
571.2858654933
 20
-327.1700652466
 10
570.2069588701
 20
-326.9226269315
 10
569.2559813907
 20
-326.5382216663
 10
568.4842004974
 20
-326.0375728383
 10
567.9332230977
 20
-325.4476705554
 10
567.6327525259
 20
-324.8003166024
 10
567.5989872284
 20
-324.1304099984
 10
567.833747501
 20
-323.4740655819
 10
568.3243773566
 20
-322.8666670503
 10
569.0444268129
 20
-322.3409594155
  0
LWPOLYLINE
  5
127
330
1F
100
AcDbEntity
  8
0
  6
Continuous
 62
     1
370
    25
100
AcDbPolyline
 90
       61
 70
   128
 43
0.0
 10
559.5975287011
 20
-121.2211379576
 10
561.9270650045
 20
-123.2527029007
 10
564.1498387989
 20
-125.5396924959
 10
566.2157414799
 20
-128.0407471347
 10
568.1196368882
 20
-130.7496488012
 10
569.8567916397
 20
-133.6596627391
 10
571.422886894
 20
-136.7635541951
 10
572.8140290914
 20
-140.0536064062
 10
574.0267596335
 20
-143.5216397841
 10
575.0580634808
 20
-147.1590322514
 10
575.9053766496
 20
-150.9567406773
 10
576.5665925858
 20
-154.9053233603
 10
577.0400674025
 20
-158.9949635017
 10
577.3246239666
 20
-163.2154936117
 10
577.4195548256
 20
-167.5564207875
 10
577.3246239666
 20
-172.0069528002
 10
577.0400674025
 20
-176.5560249259
 10
576.5665925858
 20
-181.1923274546
 10
575.9053766496
 20
-185.9043338076
 10
575.0580634808
 20
-190.6803291948
 10
574.0267596335
 20
-195.5084397391
 10
572.8140290914
 20
-200.3766619969
 10
571.422886894
 20
-205.2728928007
 10
569.8567916397
 20
-210.1849593493
 10
568.1196368882
 20
-215.1006494712
 10
566.2157414799
 20
-220.0077419863
 10
564.1498387989
 20
-224.8940370894
 10
561.9270650045
 20
-229.747386681
 10
559.5529462628
 20
-234.5557245693
 10
557.033385007
 20
-239.3070964687
 10
554.3746452633
 20
-243.98968972
 10
551.5833370777
 20
-248.5918626586
 10
548.6664000821
 20
-253.1021735575
 10
545.6310862416
 20
-257.5094090731
 10
542.4849418244
 20
-261.8026121234
 10
539.2357886415
 20
-265.9711091293
 10
535.8917045996
 20
-270.0045365504
 10
532.4610036184
 20
-273.8928666506
 10
528.9522149612
 20
-277.6264324287
 10
525.3740620294
 20
-281.1959516518
 10
521.735440675
 20
-284.5925499328
 10
518.045397084
 20
-287.8077827931
 10
514.3131052861
 20
-290.8336566572
 10
510.5478443469
 20
-293.662648726
 10
506.7589752983
 20
-296.2877256794
 10
502.9559178657
 20
-298.7023611626
 10
499.1481270492
 20
-300.9005520111
 10
495.3450696166
 20
-302.8768331764
 10
491.556200568
 20
-304.6262913119
 10
487.7909396288
 20
-306.1445769891
 10
484.058647831
 20
-307.4279155106
 10
480.3686042399
 20
-308.4731162946
 10
476.7299828855
 20
-309.2775808073
 10
473.1518299537
 20
-309.8393090231
 10
469.6430412965
 20
-310.1569043973
 10
466.2123403153
 20
-310.2295773376
 10
462.8682562734
 20
-310.0571471677
 10
459.6191030905
 20
-309.6400425762
 10
456.4729586734
 20
-308.9793005507
 10
453.4376448328
 20
-308.0765638001
 10
452.040752094
 20
-307.5651197683
  0
ARC
  5
128
330
1F
100
AcDbEntity
  8
0
  6
Continuous
 62
     1
370
    25
100
AcDbCircle
 10
585.7337474962
 20
-260.528178129
 30
0.0
 40
149.7794325792042
100
AcDbArc
 50
134.9838539466
 51
165.0215225861
  0
ARC
  5
129
330
1F
100
AcDbEntity
  8
0
  6
Continuous
 62
     1
370
    25
100
AcDbCircle
 10
586.9794947224
 20
-261.2473326951
 30
0.0
 40
149.2123754866853
100
AcDbArc
 50
136.4871505356
 51
163.5182259971
  0
ENDSEC
  0
SECTION
  2
OBJECTS
  0
DICTIONARY
  5
C
330
0
100
AcDbDictionary
281
     1
  3
ACAD_GROUP
350
D
  3
ACAD_LAYOUT
350
1A
  3
ACAD_MLINESTYLE
350
17
  3
ACAD_PLOTSETTINGS
350
19
  3
ACAD_PLOTSTYLENAME
350
E
  3
ACAD_SCALELIST
350
47
  3
DWGPROPS
350
12A
  0
DICTIONARY
  5
D
102
{ACAD_REACTORS
330
C
102
}
330
C
100
AcDbDictionary
281
     1
  0
DICTIONARY
  5
1A
102
{ACAD_REACTORS
330
C
102
}
330
C
100
AcDbDictionary
281
     1
  3
Layout1
350
1E
  3
Layout2
350
26
  3
Model
350
22
  0
DICTIONARY
  5
17
102
{ACAD_REACTORS
330
C
102
}
330
C
100
AcDbDictionary
281
     1
  3
Standard
350
18
  0
DICTIONARY
  5
19
102
{ACAD_REACTORS
330
C
102
}
330
C
100
AcDbDictionary
281
     1
  0
ACDBDICTIONARYWDFLT
  5
E
102
{ACAD_REACTORS
330
C
102
}
330
C
100
AcDbDictionary
281
     1
  3
Normal
350
F
100
AcDbDictionaryWithDefault
340
F
  0
DICTIONARY
  5
47
102
{ACAD_REACTORS
330
C
102
}
330
C
100
AcDbDictionary
281
     1
  3
A0
350
48
  3
A1
350
49
  3
A2
350
4A
  3
A3
350
4B
  3
A4
350
4C
  3
A5
350
4D
  3
A6
350
4E
  3
A7
350
4F
  3
A8
350
50
  3
A9
350
51
  3
B0
350
52
  3
B1
350
53
  3
B2
350
54
  3
B3
350
55
  3
B4
350
56
  3
B5
350
57
  3
B6
350
58
  3
B7
350
59
  3
B8
350
5A
  3
B9
350
5B
  3
C0
350
5C
  3
C1
350
5D
  3
C2
350
5E
  3
C3
350
5F
  3
C4
350
60
  3
C5
350
61
  3
C6
350
62
  3
C7
350
63
  3
C8
350
64
  3
C9
350
65
  3
D0
350
66
  3
D1
350
67
  3
D2
350
68
  0
XRECORD
  5
12A
102
{ACAD_REACTORS
330
C
102
}
330
C
100
AcDbXrecord
280
     1
  1
DWGPROPS COOKIE
  2

  3

  4

  6

  7

  8
b.kav
  9

300
=
301
=
302
=
303
=
304
=
305
=
306
=
307
=
308
=
309
=
 40
0.0
 41
2460346.545852951
 42
2460346.545853137
  1

 90
        0
  0
LAYOUT
  5
1E
102
{ACAD_REACTORS
330
1A
102
}
330
1A
100
AcDbPlotSettings
  1

  2
none_device
  4

  6

 40
0.0
 41
0.0
 42
0.0
 43
0.0
 44
0.0
 45
0.0
 46
0.0
 47
0.0
 48
0.0
 49
0.0
140
0.0
141
0.0
142
1.0
143
1.0
 70
   688
 72
     1
 73
     0
 74
     5
  7

 75
    16
147
1.0
148
0.0
149
0.0
100
AcDbLayout
  1
Layout1
 70
     1
 71
     1
 10
0.0
 20
0.0
 11
420.0
 21
297.0
 12
0.0
 22
0.0
 32
0.0
 14
1.0000000000E+20
 24
1.0000000000E+20
 34
1.0000000000E+20
 15
-1.0000000000E+20
 25
-1.0000000000E+20
 35
-1.0000000000E+20
146
0.0
 13
0.0
 23
0.0
 33
0.0
 16
1.0
 26
0.0
 36
0.0
 17
0.0
 27
1.0
 37
0.0
 76
     0
330
1B
  0
LAYOUT
  5
26
102
{ACAD_REACTORS
330
1A
102
}
330
1A
100
AcDbPlotSettings
  1

  2
none_device
  4

  6

 40
0.0
 41
0.0
 42
0.0
 43
0.0
 44
0.0
 45
0.0
 46
0.0
 47
0.0
 48
0.0
 49
0.0
140
0.0
141
0.0
142
1.0
143
1.0
 70
   688
 72
     1
 73
     0
 74
     5
  7

 75
    16
147
1.0
148
0.0
149
0.0
100
AcDbLayout
  1
Layout2
 70
     1
 71
     2
 10
0.0
 20
0.0
 11
0.0
 21
0.0
 12
0.0
 22
0.0
 32
0.0
 14
0.0
 24
0.0
 34
0.0
 15
0.0
 25
0.0
 35
0.0
146
0.0
 13
0.0
 23
0.0
 33
0.0
 16
1.0
 26
0.0
 36
0.0
 17
0.0
 27
1.0
 37
0.0
 76
     0
330
23
  0
LAYOUT
  5
22
102
{ACAD_REACTORS
330
1A
102
}
330
1A
100
AcDbPlotSettings
  1

  2
none_device
  4
Letter_(8.50_x_11.00_Inches)
  6

 40
6.35
 41
6.35
 42
6.35000508
 43
6.35000508
 44
215.9
 45
279.4
 46
0.0
 47
0.0
 48
0.0
 49
0.0
140
0.0
141
0.0
142
1.0
143
1.0
 70
  1712
 72
     1
 73
     0
 74
     0
  7

 75
     0
147
1.0
148
0.0
149
0.0
100
AcDbLayout
  1
Model
 70
     1
 71
     0
 10
0.0
 20
0.0
 11
279.4
 21
215.9
 12
0.0
 22
0.0
 32
0.0
 14
0.0
 24
0.0
 34
0.0
 15
279.4
 25
215.9
 35
0.0
146
0.0
 13
0.0
 23
0.0
 33
0.0
 16
1.0
 26
0.0
 36
0.0
 17
0.0
 27
1.0
 37
0.0
 76
     0
330
1F
331
29
  0
MLINESTYLE
  5
18
102
{ACAD_REACTORS
330
17
102
}
330
17
100
AcDbMlineStyle
  2
Standard
 70
     0
  3

 62
   256
 51
90.0
 52
90.0
 71
     2
 49
0.5
 62
   256
  6
BYLAYER
 49
-0.5
 62
   256
  6
BYLAYER
  0
ACDBPLACEHOLDER
  5
F
102
{ACAD_REACTORS
330
E
102
}
330
E
  0
SCALE
  5
48
102
{ACAD_REACTORS
330
47
102
}
330
47
100
AcDbScale
 70
     0
300
1:1
140
1.0
141
1.0
290
     1
  0
SCALE
  5
49
102
{ACAD_REACTORS
330
47
102
}
330
47
100
AcDbScale
 70
     0
300
1:2
140
1.0
141
2.0
290
     0
  0
SCALE
  5
4A
102
{ACAD_REACTORS
330
47
102
}
330
47
100
AcDbScale
 70
     0
300
1:4
140
1.0
141
4.0
290
     0
  0
SCALE
  5
4B
102
{ACAD_REACTORS
330
47
102
}
330
47
100
AcDbScale
 70
     0
300
1:5
140
1.0
141
5.0
290
     0
  0
SCALE
  5
4C
102
{ACAD_REACTORS
330
47
102
}
330
47
100
AcDbScale
 70
     0
300
1:8
140
1.0
141
8.0
290
     0
  0
SCALE
  5
4D
102
{ACAD_REACTORS
330
47
102
}
330
47
100
AcDbScale
 70
     0
300
1:10
140
1.0
141
10.0
290
     0
  0
SCALE
  5
4E
102
{ACAD_REACTORS
330
47
102
}
330
47
100
AcDbScale
 70
     0
300
1:16
140
1.0
141
16.0
290
     0
  0
SCALE
  5
4F
102
{ACAD_REACTORS
330
47
102
}
330
47
100
AcDbScale
 70
     0
300
1:20
140
1.0
141
20.0
290
     0
  0
SCALE
  5
50
102
{ACAD_REACTORS
330
47
102
}
330
47
100
AcDbScale
 70
     0
300
1:30
140
1.0
141
30.0
290
     0
  0
SCALE
  5
51
102
{ACAD_REACTORS
330
47
102
}
330
47
100
AcDbScale
 70
     0
300
1:40
140
1.0
141
40.0
290
     0
  0
SCALE
  5
52
102
{ACAD_REACTORS
330
47
102
}
330
47
100
AcDbScale
 70
     0
300
1:50
140
1.0
141
50.0
290
     0
  0
SCALE
  5
53
102
{ACAD_REACTORS
330
47
102
}
330
47
100
AcDbScale
 70
     0
300
1:100
140
1.0
141
100.0
290
     0
  0
SCALE
  5
54
102
{ACAD_REACTORS
330
47
102
}
330
47
100
AcDbScale
 70
     0
300
2:1
140
2.0
141
1.0
290
     0
  0
SCALE
  5
55
102
{ACAD_REACTORS
330
47
102
}
330
47
100
AcDbScale
 70
     0
300
4:1
140
4.0
141
1.0
290
     0
  0
SCALE
  5
56
102
{ACAD_REACTORS
330
47
102
}
330
47
100
AcDbScale
 70
     0
300
8:1
140
8.0
141
1.0
290
     0
  0
SCALE
  5
57
102
{ACAD_REACTORS
330
47
102
}
330
47
100
AcDbScale
 70
     0
300
10:1
140
10.0
141
1.0
290
     0
  0
SCALE
  5
58
102
{ACAD_REACTORS
330
47
102
}
330
47
100
AcDbScale
 70
     0
300
100:1
140
100.0
141
1.0
290
     0
  0
SCALE
  5
59
102
{ACAD_REACTORS
330
47
102
}
330
47
100
AcDbScale
 70
     0
300
1/128" = 1'-0"
140
0.0078125
141
12.0
290
     0
  0
SCALE
  5
5A
102
{ACAD_REACTORS
330
47
102
}
330
47
100
AcDbScale
 70
     0
300
1/64" = 1'-0"
140
0.015625
141
12.0
290
     0
  0
SCALE
  5
5B
102
{ACAD_REACTORS
330
47
102
}
330
47
100
AcDbScale
 70
     0
300
1/32" = 1'-0"
140
0.03125
141
12.0
290
     0
  0
SCALE
  5
5C
102
{ACAD_REACTORS
330
47
102
}
330
47
100
AcDbScale
 70
     0
300
1/16" = 1'-0"
140
0.0625
141
12.0
290
     0
  0
SCALE
  5
5D
102
{ACAD_REACTORS
330
47
102
}
330
47
100
AcDbScale
 70
     0
300
3/32" = 1'-0"
140
0.09375
141
12.0
290
     0
  0
SCALE
  5
5E
102
{ACAD_REACTORS
330
47
102
}
330
47
100
AcDbScale
 70
     0
300
1/8" = 1'-0"
140
0.125
141
12.0
290
     0
  0
SCALE
  5
5F
102
{ACAD_REACTORS
330
47
102
}
330
47
100
AcDbScale
 70
     0
300
3/16" = 1'-0"
140
0.1875
141
12.0
290
     0
  0
SCALE
  5
60
102
{ACAD_REACTORS
330
47
102
}
330
47
100
AcDbScale
 70
     0
300
1/4" = 1'-0"
140
0.25
141
12.0
290
     0
  0
SCALE
  5
61
102
{ACAD_REACTORS
330
47
102
}
330
47
100
AcDbScale
 70
     0
300
3/8" = 1'-0"
140
0.375
141
12.0
290
     0
  0
SCALE
  5
62
102
{ACAD_REACTORS
330
47
102
}
330
47
100
AcDbScale
 70
     0
300
1/2" = 1'-0"
140
0.5
141
12.0
290
     0
  0
SCALE
  5
63
102
{ACAD_REACTORS
330
47
102
}
330
47
100
AcDbScale
 70
     0
300
3/4" = 1'-0"
140
0.75
141
12.0
290
     0
  0
SCALE
  5
64
102
{ACAD_REACTORS
330
47
102
}
330
47
100
AcDbScale
 70
     0
300
1" = 1'-0"
140
1.0
141
12.0
290
     0
  0
SCALE
  5
65
102
{ACAD_REACTORS
330
47
102
}
330
47
100
AcDbScale
 70
     0
300
1-1/2" = 1'-0"
140
1.5
141
12.0
290
     0
  0
SCALE
  5
66
102
{ACAD_REACTORS
330
47
102
}
330
47
100
AcDbScale
 70
     0
300
3" = 1'-0"
140
3.0
141
12.0
290
     0
  0
SCALE
  5
67
102
{ACAD_REACTORS
330
47
102
}
330
47
100
AcDbScale
 70
     0
300
6" = 1'-0"
140
6.0
141
12.0
290
     0
  0
SCALE
  5
68
102
{ACAD_REACTORS
330
47
102
}
330
47
100
AcDbScale
 70
     0
300
1'-0" = 1'-0"
140
12.0
141
12.0
290
     0
  0
ENDSEC
  0
EOF
